  0
SECTION
  2
HEADER
  9
$ACADVER
  1
AC1004
  9
$INSBASE
 10
0.0
 20
0.0
  9
$EXTMIN
 10
0.0
 20
0.0
  9
$EXTMAX
 10
194.9
 20
281.0
  9
$LIMMIN
 10
0.0
 20
0.0
  9
$LIMMAX
 10
12.0
 20
9.0
  9
$ORTHOMODE
 70
     0
  9
$REGENMODE
 70
     1
  9
$FILLMODE
 70
     1
  9
$QTEXTMODE
 70
     0
  9
$DRAGMODE
 70
     2
  9
$LTSCALE
 40
1.0
  9
$OSMODE
 70
    37
  9
$ATTMODE
 70
     1
  9
$TEXTSIZE
 40
0.2
  9
$TRACEWID
 40
0.05
  9
$TEXTSTYLE
  7
STANDARD
  9
$CLAYER
  8
0
  9
$CELTYPE
  6
BYLAYER
  9
$CECOLOR
 62
   256
  9
$DIMSCALE
 40
1.0
  9
$DIMASZ
 40
3.0
  9
$DIMEXO
 40
0.0625
  9
$DIMDLI
 40
0.38
  9
$DIMRND
 40
0.0
  9
$DIMDLE
 40
0.0
  9
$DIMEXE
 40
1.5
  9
$DIMTP
 40
0.0
  9
$DIMTM
 40
0.0
  9
$DIMTXT
 40
3.0
  9
$DIMCEN
 40
0.09
  9
$DIMTSZ
 40
0.0
  9
$DIMTOL
 70
     0
  9
$DIMLIM
 70
     0
  9
$DIMTIH
 70
     1
  9
$DIMTOH
 70
     1
  9
$DIMSE1
 70
     0
  9
$DIMSE2
 70
     0
  9
$DIMTAD
 70
     1
  9
$DIMZIN
 70
     0
  9
$DIMBLK
  1

  9
$DIMASO
 70
     1
  9
$DIMSHO
 70
     1
  9
$DIMPOST
  1

  9
$DIMAPOST
  1

  9
$DIMALT
 70
     0
  9
$DIMALTD
 70
     2
  9
$DIMALTF
 40
25.4
  9
$DIMLFAC
 40
1.0
  9
$DIMTOFL
 70
     0
  9
$DIMTVP
 40
0.0
  9
$DIMTIX
 70
     0
  9
$DIMSOXD
 70
     0
  9
$DIMSAH
 70
     0
  9
$DIMBLK1
  1

  9
$DIMBLK2
  1

  9
$LUNITS
 70
     2
  9
$LUPREC
 70
     4
  9
$SKETCHINC
 40
0.1
  9
$FILLETRAD
 40
0.5
  9
$AUNITS
 70
     0
  9
$AUPREC
 70
     0
  9
$MENU
  1
.
  9
$ELEVATION
 40
0.0
  9
$THICKNESS
 40
0.0
  9
$LIMCHECK
 70
     0
  9
$CHAMFERA
 40
0.0
  9
$CHAMFERB
 40
0.0
  9
$SKPOLY
 70
     0
  9
$TDCREATE
 40
2458985.378860104
  9
$TDUPDATE
 40
2458985.378864444
  9
$TDINDWG
 40
0.0000000116
  9
$TDUSRTIMER
 40
0.0000000116
  9
$USRTIMER
 70
     1
  9
$ANGBASE
 50
0.0
  9
$ANGDIR
 70
     0
  9
$PDMODE
 70
     0
  9
$PDSIZE
 40
0.0
  9
$PLINEWID
 40
0.0
  9
$COORDS
 70
     1
  9
$SPLFRAME
 70
     0
  9
$SPLINETYPE
 70
     6
  9
$SPLINESEGS
 70
     8
  9
$ATTDIA
 70
     0
  9
$ATTREQ
 70
     1
  9
$SURFTAB1
 70
     6
  9
$SURFTAB2
 70
     6
  9
$SURFTYPE
 70
     6
  9
$SURFU
 70
     6
  9
$SURFV
 70
     6
  9
$UCSNAME
  2

  9
$UCSORG
 10
0.0
 20
0.0
 30
0.0
  9
$UCSXDIR
 10
1.0
 20
0.0
 30
0.0
  9
$UCSYDIR
 10
0.0
 20
1.0
 30
0.0
  9
$USERI1
 70
     0
  9
$USERI2
 70
     0
  9
$USERI3
 70
     0
  9
$USERI4
 70
     0
  9
$USERI5
 70
     0
  9
$USERR1
 40
0.0
  9
$USERR2
 40
0.0
  9
$USERR3
 40
0.0
  9
$USERR4
 40
0.0
  9
$USERR5
 40
0.0
  9
$WORLDVIEW
 70
     1
  0
ENDSEC
  0
SECTION
  2
TABLES
  0
TABLE
  2
LTYPE
 70
     1
  0
LTYPE
  2
CONTINUOUS
 70
     0
  3
Solid line
 72
    65
 73
     0
 40
0.0
  0
ENDTAB
  0
TABLE
  2
LAYER
 70
     1
  0
LAYER
  2
0
 70
     0
 62
     7
  6
CONTINUOUS
  0
ENDTAB
  0
TABLE
  2
STYLE
 70
     2
  0
STYLE
  2
STANDARD
 70
     0
 40
0.0
 41
1.0
 50
0.0
 71
     0
 42
0.2
  3
txt
  4

  0
STYLE
  2
ＭＳ_ゴシック
 70
     0
 40
0.0
 41
1.0
 50
0.0
 71
     0
 42
0.2
  3
ＭＳ ゴシック.shx
  4

  0
ENDTAB
  0
TABLE
  2
VIEW
 70
     0
  0
ENDTAB
  0
ENDSEC
  0
SECTION
  2
BLOCKS
  0
BLOCK
  8
0
  2
D_FRAME_VIEW_4529
 70
     0
 10
0.0
 20
0.0
  0
LINE
  8
0
  6
CONTINUOUS
 62
     7
 10
102.8
 20
84.81092953691657
 11
107.2
 21
84.81092953691657
  0
LINE
  8
0
  6
CONTINUOUS
 62
     7
 10
102.8
 20
74.21092953691658
 11
107.2
 21
74.21092953691658
  0
POLYLINE
  8
0
  6
CONTINUOUS
 62
     7
 66
     1
  0
VERTEX
  8
0
  6
CONTINUOUS
 62
     7
 10
102.5833701152225
 20
70.37092953691656
  0
VERTEX
  8
0
  6
CONTINUOUS
 62
     7
 10
102.571786420167
 20
70.37062991897452
  0
VERTEX
  8
0
  6
CONTINUOUS
 62
     7
 10
102.5602239377506
 20
70.36973156665829
  0
VERTEX
  8
0
  6
CONTINUOUS
 62
     7
 10
102.5487289713747
 20
70.36823523223273
  0
VERTEX
  8
0
  6
CONTINUOUS
 62
     7
 10
102.5399513465471
 20
70.36667660433291
  0
VERTEX
  8
0
  6
CONTINUOUS
 62
     7
 10
102.531234949367
 20
70.3647634426765
  0
VERTEX
  8
0
  6
CONTINUOUS
 62
     7
 10
102.5226014381122
 20
70.36249896034703
  0
VERTEX
  8
0
  6
CONTINUOUS
 62
     7
 10
102.5140724710603
 20
70.35988637042801
  0
VERTEX
  8
0
  6
CONTINUOUS
 62
     7
 10
102.505647561364
 20
70.3569216526457
  0
VERTEX
  8
0
  6
CONTINUOUS
 62
     7
 10
102.4973430460957
 20
70.35360855655945
  0
VERTEX
  8
0
  6
CONTINUOUS
 62
     7
 10
102.4891810240551
 20
70.3499537949201
  0
VERTEX
  8
0
  6
CONTINUOUS
 62
     7
 10
102.4811835940416
 20
70.3459640804785
  0
VERTEX
  8
0
  6
CONTINUOUS
 62
     7
 10
102.4731321424726
 20
70.34150739350319
  0
VERTEX
  8
0
  6
CONTINUOUS
 62
     7
 10
102.4652727835706
 20
70.33669869237049
  0
VERTEX
  8
0
  6
CONTINUOUS
 62
     7
 10
102.4576293998567
 20
70.33154982352782
  0
VERTEX
  8
0
  6
CONTINUOUS
 62
     7
 10
102.4502258738518
 20
70.3260726334227
  0
VERTEX
  8
0
  6
CONTINUOUS
 62
     7
 10
102.4434921763412
 20
70.3206248071726
  0
VERTEX
  8
0
  6
CONTINUOUS
 62
     7
 10
102.4369860941619
 20
70.31489225227072
  0
VERTEX
  8
0
  6
CONTINUOUS
 62
     7
 10
102.4307264528316
 20
70.30888892554063
  0
VERTEX
  8
0
  6
CONTINUOUS
 62
     7
 10
102.4247320778686
 20
70.30262878380601
  0
VERTEX
  8
0
  6
CONTINUOUS
 62
     7
 10
102.4188393079524
 20
70.29591029256366
  0
VERTEX
  8
0
  6
CONTINUOUS
 62
     7
 10
102.4132439607419
 20
70.28892813778795
  0
VERTEX
  8
0
  6
CONTINUOUS
 62
     7
 10
102.4079643460132
 20
70.28170216414597
  0
VERTEX
  8
0
  6
CONTINUOUS
 62
     7
 10
102.4030187735425
 20
70.27425221630473
  0
VERTEX
  8
0
  6
CONTINUOUS
 62
     7
 10
102.3986957151073
 20
70.26707411360691
  0
VERTEX
  8
0
  6
CONTINUOUS
 62
     7
 10
102.3946775317689
 20
70.25971060715503
  0
VERTEX
  8
0
  6
CONTINUOUS
 62
     7
 10
102.3909763304739
 20
70.2521814312471
  0
VERTEX
  8
0
  6
CONTINUOUS
 62
     7
 10
102.3876042181694
 20
70.24450632018113
  0
VERTEX
  8
0
  6
CONTINUOUS
 62
     7
 10
102.3844770863109
 20
70.23644381147997
  0
VERTEX
  8
0
  6
CONTINUOUS
 62
     7
 10
102.3817094176461
 20
70.22824059440399
  0
VERTEX
  8
0
  6
CONTINUOUS
 62
     7
 10
102.3793102081675
 20
70.21992125393962
  0
VERTEX
  8
0
  6
CONTINUOUS
 62
     7
 10
102.3772884538673
 20
70.21151037507336
  0
VERTEX
  8
0
  6
CONTINUOUS
 62
     7
 10
102.3759713821391
 20
70.20486542763518
  0
VERTEX
  8
0
  6
CONTINUOUS
 62
     7
 10
102.3748889770135
 20
70.19817573533035
  0
VERTEX
  8
0
  6
CONTINUOUS
 62
     7
 10
102.3740436024643
 20
70.1914538417871
  0
VERTEX
  8
0
  6
CONTINUOUS
 62
     7
 10
102.3734310714027
 20
70.1846278876209
  0
VERTEX
  8
0
  6
CONTINUOUS
 62
     7
 10
102.3730629449813
 20
70.17778203410063
  0
VERTEX
  8
0
  6
CONTINUOUS
 62
     7
 10
102.3729400519971
 20
70.17092953691656
  0
SEQEND
  8
0
  6
CONTINUOUS
 62
     7
  0
LINE
  8
0
  6
CONTINUOUS
 62
     7
 10
107.4718616466137
 20
70.37092953691656
 11
102.5833701152225
 21
70.37092953691656
  0
LINE
  8
0
  6
CONTINUOUS
 62
     7
 10
107.6744038574232
 20
66.97092953691657
 11
107.6744038574232
 21
70.17092953691657
  0
LINE
  8
0
  6
CONTINUOUS
 62
     7
 10
107.69
 20
66.97092953691657
 11
107.6744038574232
 21
66.97092953691657
  0
LINE
  8
0
  6
CONTINUOUS
 62
     7
 10
107.49
 20
66.77092953691657
 11
102.51
 21
66.77092953691657
  0
LINE
  8
0
  6
CONTINUOUS
 62
     7
 10
102.3729400519971
 20
66.97092953691657
 11
102.31
 21
66.97092953691657
  0
LINE
  8
0
  6
CONTINUOUS
 62
     7
 10
102.2752798308817
 20
70.17092953691656
 11
102.3729400519971
 21
70.17092953691656
  0
LINE
  8
0
  6
CONTINUOUS
 62
     7
 10
102.2752798308817
 20
70.17092953691656
 11
102.3535567542842
 21
70.37092953691656
  0
LINE
  8
0
  6
CONTINUOUS
 62
     7
 10
102.3729400519971
 20
66.97092953691657
 11
102.2752798308846
 21
67.05114613494362
  0
LINE
  8
0
  6
CONTINUOUS
 62
     7
 10
102.2305086661188
 20
67.09519360562848
 11
102.2752798308846
 21
67.05114613494362
  0
LINE
  8
0
  6
CONTINUOUS
 62
     7
 10
102.0521024441138
 20
67.51945767434042
 11
102.2305086661188
 21
67.09519360562848
  0
LINE
  8
0
  6
CONTINUOUS
 62
     7
 10
102.0521024441138
 20
70.37092953691656
 11
102.0521024441138
 21
67.51945767434042
  0
LINE
  8
0
  6
CONTINUOUS
 62
     7
 10
102.3535567542842
 20
70.37092953691656
 11
102.0521024441138
 21
70.37092953691656
  0
LINE
  8
0
  6
CONTINUOUS
 62
     7
 10
102.0521024441138
 20
70.37092953691658
 11
102.01
 21
70.37092953691658
  0
LINE
  8
0
  6
CONTINUOUS
 62
     7
 10
107.5281375183605
 20
70.36307588162175
 11
107.4718616466137
 21
70.37092953691656
  0
LINE
  8
0
  6
CONTINUOUS
 62
     7
 10
107.4718616466137
 20
70.37092953691656
 11
107.5221318250807
 21
70.37092953691656
  0
LINE
  8
0
  6
CONTINUOUS
 62
     7
 10
107.5221318250807
 20
70.37092953691656
 11
107.6969727200687
 21
70.37092953691656
  0
LINE
  8
0
  6
CONTINUOUS
 62
     7
 10
107.7738240751713
 20
67.06195452781472
 11
107.6744038574232
 21
66.97092953691657
  0
LINE
  8
0
  6
CONTINUOUS
 62
     7
 10
107.7738240751713
 20
67.06195452781472
 11
107.8071484193827
 21
67.09519360562848
  0
LINE
  8
0
  6
CONTINUOUS
 62
     7
 10
107.9833035380263
 20
67.51945767434042
 11
107.9833035380263
 21
70.37092953691656
  0
LINE
  8
0
  6
CONTINUOUS
 62
     7
 10
107.8071484193827
 20
67.09519360562848
 11
107.9833035380263
 21
67.51945767434042
  0
LINE
  8
0
  6
CONTINUOUS
 62
     7
 10
107.9833035380263
 20
70.37092953691656
 11
107.6969727200687
 21
70.37092953691656
  0
LINE
  8
0
  6
CONTINUOUS
 62
     7
 10
107.99
 20
70.37092953691656
 11
107.9833035380263
 21
70.37092953691656
  0
LINE
  8
0
  6
CONTINUOUS
 62
     7
 10
102.4718624816394
 20
70.36307588162175
 11
102.5281383533863
 21
70.37092953691658
  0
LINE
  8
0
  6
CONTINUOUS
 62
     7
 10
102.3627182361301
 20
70.43092953691657
 11
107.41
 21
70.43092953691657
  0
LINE
  8
0
  6
CONTINUOUS
 62
     7
 10
107.41
 20
70.43092953691657
 11
107.684457817793
 21
70.43092953691657
  0
LINE
  8
0
  6
CONTINUOUS
 62
     7
 10
102.69
 20
74.11092953691657
 11
107.31
 21
74.11092953691657
  0
LINE
  8
0
  6
CONTINUOUS
 62
     7
 10
102.6062575399225
 20
71.37582370292922
 11
102.6080264541559
 21
71.37792424150419
  0
LINE
  8
0
  6
CONTINUOUS
 62
     7
 10
102.6597634753531
 20
71.49207283039813
 11
102.6080264541559
 21
71.37792424150419
  0
LINE
  8
0
  6
CONTINUOUS
 62
     7
 10
102.4715692418641
 20
71.20395402522456
 11
102.6062575399225
 21
71.37582370292921
  0
LINE
  8
0
  6
CONTINUOUS
 62
     7
 10
102.2650411337645
 20
70.43092953691657
 11
102.3627182361301
 21
70.43092953691657
  0
LINE
  8
0
  6
CONTINUOUS
 62
     7
 10
102.0815607652983
 20
70.68386434133042
 11
102.4715692418641
 21
71.20395402522456
  0
LINE
  8
0
  6
CONTINUOUS
 62
     7
 10
102.0815607652983
 20
70.68386434133042
 11
102.0419601084502
 21
70.56515591229365
  0
LINE
  8
0
  6
CONTINUOUS
 62
     7
 10
102.0419601084502
 20
70.43092953691657
 11
102.0419601084502
 21
70.56515591229365
  0
LINE
  8
0
  6
CONTINUOUS
 62
     7
 10
102.2650411337645
 20
70.43092953691657
 11
102.0419601084502
 21
70.43092953691657
  0
LINE
  8
0
  6
CONTINUOUS
 62
     7
 10
102.0
 20
70.43092953691657
 11
102.0419601084502
 21
70.43092953691657
  0
LINE
  8
0
  6
CONTINUOUS
 62
     7
 10
107.437893284139
 20
71.37792424150355
 11
107.3928283730243
 21
71.49207283039814
  0
LINE
  8
0
  6
CONTINUOUS
 62
     7
 10
107.437893284139
 20
71.37792424150355
 11
107.4411404479405
 21
71.37377874326938
  0
LINE
  8
0
  6
CONTINUOUS
 62
     7
 10
107.4411404479405
 20
71.37377874326938
 11
107.592613668271
 21
71.17287333541304
  0
LINE
  8
0
  6
CONTINUOUS
 62
     7
 10
107.684457817793
 20
70.43092953691657
 11
107.783882181415
 21
70.43092953691657
  0
LINE
  8
0
  6
CONTINUOUS
 62
     7
 10
107.592613668271
 20
71.17287333541304
 11
107.9541982950788
 21
70.68386434133043
  0
LINE
  8
0
  6
CONTINUOUS
 62
     7
 10
107.9933259094192
 20
70.56515591229365
 11
107.9541982950788
 21
70.68386434133043
  0
LINE
  8
0
  6
CONTINUOUS
 62
     7
 10
107.9933259094192
 20
70.56515591229365
 11
107.9933259094192
 21
70.43092953691657
  0
LINE
  8
0
  6
CONTINUOUS
 62
     7
 10
107.9933259094192
 20
70.43092953691657
 11
107.783882181415
 21
70.43092953691657
  0
LINE
  8
0
  6
CONTINUOUS
 62
     7
 10
107.9933259094192
 20
70.43092953691657
 11
108.0
 21
70.43092953691657
  0
LINE
  8
0
  6
CONTINUOUS
 62
     7
 10
158.0
 20
103.6109295369166
 11
140.0000000000001
 21
103.6109295369166
  0
LINE
  8
0
  6
CONTINUOUS
 62
     7
 10
158.0
 20
103.7109295369166
 11
140.0000000000001
 21
103.7109295369166
  0
LINE
  8
0
  6
CONTINUOUS
 62
     7
 10
52.0
 20
103.6109295369166
 11
69.99999999999996
 21
103.6109295369166
  0
LINE
  8
0
  6
CONTINUOUS
 62
     7
 10
52.0
 20
103.7109295369166
 11
69.99999999999996
 21
103.7109295369166
  0
LINE
  8
0
  6
CONTINUOUS
 62
     7
 10
108.7008688789405
 20
91.01092953691656
 11
101.2991311210595
 21
91.01092953691656
  0
LINE
  8
0
  6
CONTINUOUS
 62
     7
 10
104.9131006863486
 20
89.11092953691657
 11
105.0868993136514
 21
89.11092953691657
  0
LINE
  8
0
  6
CONTINUOUS
 62
     7
 10
105.081787589319
 20
87.31092953691657
 11
104.918212410681
 21
87.31092953691657
  0
LINE
  8
0
  6
CONTINUOUS
 62
     7
 10
105.2180972212239
 20
87.31092953691657
 11
105.081787589319
 21
87.31092953691657
  0
LINE
  8
0
  6
CONTINUOUS
 62
     7
 10
105.0868993136514
 20
89.11092953691657
 11
105.3595185774612
 21
89.11092953691657
  0
LINE
  8
0
  6
CONTINUOUS
 62
     7
 10
104.918212410681
 20
87.31092953691657
 11
104.7819027787762
 21
87.31092953691657
  0
LINE
  8
0
  6
CONTINUOUS
 62
     7
 10
104.6404814225388
 20
89.11092953691657
 11
104.9131006863486
 21
89.11092953691657
  0
LINE
  8
0
  6
CONTINUOUS
 62
     7
 10
104.7819027787762
 20
87.31092953691657
 11
104.7296504153236
 21
87.31092953691657
  0
POLYLINE
  8
0
  6
CONTINUOUS
 62
     7
 66
     1
  0
VERTEX
  8
0
  6
CONTINUOUS
 62
     7
 10
104.7296504153236
 20
87.31092953691657
  0
VERTEX
  8
0
  6
CONTINUOUS
 62
     7
 10
104.7093160789751
 20
87.3113563380377
  0
VERTEX
  8
0
  6
CONTINUOUS
 62
     7
 10
104.6890116776754
 20
87.31262907868157
  0
VERTEX
  8
0
  6
CONTINUOUS
 62
     7
 10
104.6687889564738
 20
87.31473626476887
  0
VERTEX
  8
0
  6
CONTINUOUS
 62
     7
 10
104.6486996604196
 20
87.31766640222028
  0
VERTEX
  8
0
  6
CONTINUOUS
 62
     7
 10
104.6281745847749
 20
87.32153924126526
  0
VERTEX
  8
0
  6
CONTINUOUS
 62
     7
 10
104.6078285448017
 20
87.32629308481542
  0
VERTEX
  8
0
  6
CONTINUOUS
 62
     7
 10
104.5877269778042
 20
87.33193830431894
  0
VERTEX
  8
0
  6
CONTINUOUS
 62
     7
 10
104.5679353210863
 20
87.33848527122402
  0
VERTEX
  8
0
  6
CONTINUOUS
 62
     7
 10
104.5523190631024
 20
87.34440265855422
  0
VERTEX
  8
0
  6
CONTINUOUS
 62
     7
 10
104.5369524858766
 20
87.35094217707682
  0
VERTEX
  8
0
  6
CONTINUOUS
 62
     7
 10
104.5218881226454
 20
87.35812189526646
  0
VERTEX
  8
0
  6
CONTINUOUS
 62
     7
 10
104.506899077356
 20
87.36612030411432
  0
VERTEX
  8
0
  6
CONTINUOUS
 62
     7
 10
104.4923179082637
 20
87.37485617826881
  0
VERTEX
  8
0
  6
CONTINUOUS
 62
     7
 10
104.4782391768898
 20
87.38435969047988
  0
VERTEX
  8
0
  6
CONTINUOUS
 62
     7
 10
104.4695104749284
 20
87.39088140712991
  0
VERTEX
  8
0
  6
CONTINUOUS
 62
     7
 10
104.4610483935875
 20
87.39775665196684
  0
VERTEX
  8
0
  6
CONTINUOUS
 62
     7
 10
104.4528952404371
 20
87.40499331604116
  0
VERTEX
  8
0
  6
CONTINUOUS
 62
     7
 10
104.4468912863561
 20
87.41078097877576
  0
VERTEX
  8
0
  6
CONTINUOUS
 62
     7
 10
104.441105199346
 20
87.41680072678562
  0
VERTEX
  8
0
  6
CONTINUOUS
 62
     7
 10
104.4355664038185
 20
87.42305230945118
  0
VERTEX
  8
0
  6
CONTINUOUS
 62
     7
 10
104.4303043241857
 20
87.42953547615289
  0
VERTEX
  8
0
  6
CONTINUOUS
 62
     7
 10
104.4256883851706
 20
87.43576818034579
  0
VERTEX
  8
0
  6
CONTINUOUS
 62
     7
 10
104.4213550448828
 20
87.44221116520745
  0
VERTEX
  8
0
  6
CONTINUOUS
 62
     7
 10
104.4173367188403
 20
87.44885580042543
  0
VERTEX
  8
0
  6
CONTINUOUS
 62
     7
 10
104.4144825044701
 20
87.45409509995987
  0
VERTEX
  8
0
  6
CONTINUOUS
 62
     7
 10
104.4118414348056
 20
87.45945490299208
  0
VERTEX
  8
0
  6
CONTINUOUS
 62
     7
 10
104.4094301373165
 20
87.46492474945805
  0
VERTEX
  8
0
  6
CONTINUOUS
 62
     7
 10
104.4072652394728
 20
87.47049417929382
  0
VERTEX
  8
0
  6
CONTINUOUS
 62
     7
 10
104.4056313104828
 20
87.47529668870332
  0
VERTEX
  8
0
  6
CONTINUOUS
 62
     7
 10
104.4041903040077
 20
87.48016744935242
  0
VERTEX
  8
0
  6
CONTINUOUS
 62
     7
 10
104.4029507854419
 20
87.48509498092429
  0
VERTEX
  8
0
  6
CONTINUOUS
 62
     7
 10
104.4019213201797
 20
87.490067803102
  0
VERTEX
  8
0
  6
CONTINUOUS
 62
     7
 10
104.4010864828001
 20
87.49524101851313
  0
VERTEX
  8
0
  6
CONTINUOUS
 62
     7
 10
104.4004854324441
 20
87.50045350077427
  0
VERTEX
  8
0
  6
CONTINUOUS
 62
     7
 10
104.4001219959109
 20
87.50568856765294
  0
VERTEX
  8
0
  6
CONTINUOUS
 62
     7
 10
104.4
 20
87.51092953691656
  0
SEQEND
  8
0
  6
CONTINUOUS
 62
     7
  0
LINE
  8
0
  6
CONTINUOUS
 62
     7
 10
104.4
 20
87.51092953691656
 11
104.4
 21
89.11092953691657
  0
LINE
  8
0
  6
CONTINUOUS
 62
     7
 10
104.4
 20
89.11092953691657
 11
104.6404814225388
 21
89.11092953691657
  0
POLYLINE
  8
0
  6
CONTINUOUS
 62
     7
 66
     1
  0
VERTEX
  8
0
  6
CONTINUOUS
 62
     7
 10
105.6
 20
87.51092953691656
  0
VERTEX
  8
0
  6
CONTINUOUS
 62
     7
 10
105.5998926797618
 20
87.50601155207339
  0
VERTEX
  8
0
  6
CONTINUOUS
 62
     7
 10
105.5995727059454
 20
87.50109843487168
  0
VERTEX
  8
0
  6
CONTINUOUS
 62
     7
 10
105.5990430588981
 20
87.4962040386517
  0
VERTEX
  8
0
  6
CONTINUOUS
 62
     7
 10
105.5983067189673
 20
87.49134221675371
  0
VERTEX
  8
0
  6
CONTINUOUS
 62
     7
 10
105.5973339783696
 20
87.48636927690774
  0
VERTEX
  8
0
  6
CONTINUOUS
 62
     7
 10
105.5961505018681
 20
87.48143927597246
  0
VERTEX
  8
0
  6
CONTINUOUS
 62
     7
 10
105.5947645778814
 20
87.47656391538709
  0
VERTEX
  8
0
  6
CONTINUOUS
 62
     7
 10
105.5931844948282
 20
87.47175489659085
  0
VERTEX
  8
0
  6
CONTINUOUS
 62
     7
 10
105.5910574702115
 20
87.4661166920863
  0
VERTEX
  8
0
  6
CONTINUOUS
 62
     7
 10
105.5886767798437
 20
87.46057801070981
  0
VERTEX
  8
0
  6
CONTINUOUS
 62
     7
 10
105.5860594696727
 20
87.45515002082722
  0
VERTEX
  8
0
  6
CONTINUOUS
 62
     7
 10
105.5832225856467
 20
87.44984389080444
  0
VERTEX
  8
0
  6
CONTINUOUS
 62
     7
 10
105.5789965036268
 20
87.44276411003015
  0
VERTEX
  8
0
  6
CONTINUOUS
 62
     7
 10
105.5744123489289
 20
87.43591098025098
  0
VERTEX
  8
0
  6
CONTINUOUS
 62
     7
 10
105.5695090564243
 20
87.42929508315376
  0
VERTEX
  8
0
  6
CONTINUOUS
 62
     7
 10
105.5637654395242
 20
87.42226936755912
  0
VERTEX
  8
0
  6
CONTINUOUS
 62
     7
 10
105.557698448679
 20
87.41551631158434
  0
VERTEX
  8
0
  6
CONTINUOUS
 62
     7
 10
105.5513450422742
 20
87.40903580506931
  0
VERTEX
  8
0
  6
CONTINUOUS
 62
     7
 10
105.5447421786954
 20
87.40282773785393
  0
VERTEX
  8
0
  6
CONTINUOUS
 62
     7
 10
105.5353396734031
 20
87.39474922166367
  0
VERTEX
  8
0
  6
CONTINUOUS
 62
     7
 10
105.525557092269
 20
87.38713030381221
  0
VERTEX
  8
0
  6
CONTINUOUS
 62
     7
 10
105.5154523802496
 20
87.37995885337399
  0
VERTEX
  8
0
  6
CONTINUOUS
 62
     7
 10
105.5027945900661
 20
87.37181252397417
  0
VERTEX
  8
0
  6
CONTINUOUS
 62
     7
 10
105.4897604943561
 20
87.36425489342203
  0
VERTEX
  8
0
  6
CONTINUOUS
 62
     7
 10
105.4764074001255
 20
87.3572666269696
  0
VERTEX
  8
0
  6
CONTINUOUS
 62
     7
 10
105.4627926143802
 20
87.35082838986892
  0
VERTEX
  8
0
  6
CONTINUOUS
 62
     7
 10
105.4437811721799
 20
87.3428580449631
  0
VERTEX
  8
0
  6
CONTINUOUS
 62
     7
 10
105.4243811465458
 20
87.33582117693544
  0
VERTEX
  8
0
  6
CONTINUOUS
 62
     7
 10
105.4046747173317
 20
87.32969272175643
  0
VERTEX
  8
0
  6
CONTINUOUS
 62
     7
 10
105.3829912628791
 20
87.32403437432771
  0
VERTEX
  8
0
  6
CONTINUOUS
 62
     7
 10
105.3610396393955
 20
87.3193911315149
  0
VERTEX
  8
0
  6
CONTINUOUS
 62
     7
 10
105.3388942909773
 20
87.31575816449569
  0
VERTEX
  8
0
  6
CONTINUOUS
 62
     7
 10
105.3161488791914
 20
87.31308793015639
  0
VERTEX
  8
0
  6
CONTINUOUS
 62
     7
 10
105.2932758283636
 20
87.31147221936101
  0
VERTEX
  8
0
  6
CONTINUOUS
 62
     7
 10
105.2703495846764
 20
87.31092953691657
  0
SEQEND
  8
0
  6
CONTINUOUS
 62
     7
  0
LINE
  8
0
  6
CONTINUOUS
 62
     7
 10
105.2703495846764
 20
87.31092953691657
 11
105.2180972212239
 21
87.31092953691657
  0
LINE
  8
0
  6
CONTINUOUS
 62
     7
 10
105.6
 20
87.51092953691656
 11
105.6
 21
89.11092953691657
  0
LINE
  8
0
  6
CONTINUOUS
 62
     7
 10
105.3595185774612
 20
89.11092953691657
 11
105.6
 21
89.11092953691657
  0
LINE
  8
0
  6
CONTINUOUS
 62
     7
 10
107.9
 20
87.11092953691657
 11
105.0
 21
87.11092953691657
  0
LINE
  8
0
  6
CONTINUOUS
 62
     7
 10
105.0
 20
87.11092953691657
 11
102.1
 21
87.11092953691657
  0
LINE
  8
0
  6
CONTINUOUS
 62
     7
 10
106.7263172480487
 20
87.51092953691656
 11
106.7263172480487
 21
89.11092953691657
  0
POLYLINE
  8
0
  6
CONTINUOUS
 62
     7
 66
     1
  0
VERTEX
  8
0
  6
CONTINUOUS
 62
     7
 10
106.9925133362413
 20
87.31092953691657
  0
VERTEX
  8
0
  6
CONTINUOUS
 62
     7
 10
106.9743580723798
 20
87.31149362355852
  0
VERTEX
  8
0
  6
CONTINUOUS
 62
     7
 10
106.9560715738456
 20
87.31318473367278
  0
VERTEX
  8
0
  6
CONTINUOUS
 62
     7
 10
106.9377238246138
 20
87.3160011425421
  0
VERTEX
  8
0
  6
CONTINUOUS
 62
     7
 10
106.9193848086596
 20
87.31994112544919
  0
VERTEX
  8
0
  6
CONTINUOUS
 62
     7
 10
106.9011245099579
 20
87.32500295767673
  0
VERTEX
  8
0
  6
CONTINUOUS
 62
     7
 10
106.883012912484
 20
87.33118491450743
  0
VERTEX
  8
0
  6
CONTINUOUS
 62
     7
 10
106.8651200002128
 20
87.338485271224
  0
VERTEX
  8
0
  6
CONTINUOUS
 62
     7
 10
106.8523934695882
 20
87.34444699348424
  0
VERTEX
  8
0
  6
CONTINUOUS
 62
     7
 10
106.8397879451479
 20
87.35105001772763
  0
VERTEX
  8
0
  6
CONTINUOUS
 62
     7
 10
106.827365589562
 20
87.35831857175157
  0
VERTEX
  8
0
  6
CONTINUOUS
 62
     7
 10
106.8151885655008
 20
87.36627688335334
  0
VERTEX
  8
0
  6
CONTINUOUS
 62
     7
 10
106.8033190356347
 20
87.37494918033033
  0
VERTEX
  8
0
  6
CONTINUOUS
 62
     7
 10
106.7918191626338
 20
87.38435969047988
  0
VERTEX
  8
0
  6
CONTINUOUS
 62
     7
 10
106.7845225709082
 20
87.39093749842188
  0
VERTEX
  8
0
  6
CONTINUOUS
 62
     7
 10
106.7774167545894
 20
87.39788987679812
  0
VERTEX
  8
0
  6
CONTINUOUS
 62
     7
 10
106.7705497671175
 20
87.40522134468402
  0
VERTEX
  8
0
  6
CONTINUOUS
 62
     7
 10
106.7639696619326
 20
87.41293642115488
  0
VERTEX
  8
0
  6
CONTINUOUS
 62
     7
 10
106.7577244924748
 20
87.42103962528606
  0
VERTEX
  8
0
  6
CONTINUOUS
 62
     7
 10
106.7518623121842
 20
87.42953547615289
  0
VERTEX
  8
0
  6
CONTINUOUS
 62
     7
 10
106.7479488428724
 20
87.43583452403318
  0
VERTEX
  8
0
  6
CONTINUOUS
 62
     7
 10
106.7442655222328
 20
87.44236591435592
  0
VERTEX
  8
0
  6
CONTINUOUS
 62
     7
 10
106.7408437467794
 20
87.44911361108224
  0
VERTEX
  8
0
  6
CONTINUOUS
 62
     7
 10
106.7377149130258
 20
87.45606157817325
  0
VERTEX
  8
0
  6
CONTINUOUS
 62
     7
 10
106.734910417486
 20
87.46319377959007
  0
VERTEX
  8
0
  6
CONTINUOUS
 62
     7
 10
106.7324616566737
 20
87.47049417929382
  0
VERTEX
  8
0
  6
CONTINUOUS
 62
     7
 10
106.7308815339494
 20
87.47606215160218
  0
VERTEX
  8
0
  6
CONTINUOUS
 62
     7
 10
106.7295216316622
 20
87.48173468150013
  0
VERTEX
  8
0
  6
CONTINUOUS
 62
     7
 10
106.7283902875625
 20
87.48749073590432
  0
VERTEX
  8
0
  6
CONTINUOUS
 62
     7
 10
106.7274958394009
 20
87.49330928173141
  0
VERTEX
  8
0
  6
CONTINUOUS
 62
     7
 10
106.7268466249278
 20
87.49916928589805
  0
VERTEX
  8
0
  6
CONTINUOUS
 62
     7
 10
106.7264509818936
 20
87.5050497153209
  0
VERTEX
  8
0
  6
CONTINUOUS
 62
     7
 10
106.7263172480487
 20
87.51092953691656
  0
SEQEND
  8
0
  6
CONTINUOUS
 62
     7
  0
LINE
  8
0
  6
CONTINUOUS
 62
     7
 10
105.6
 20
89.11092953691657
 11
106.7263172480487
 21
89.11092953691657
  0
POLYLINE
  8
0
  6
CONTINUOUS
 62
     7
 66
     1
  0
VERTEX
  8
0
  6
CONTINUOUS
 62
     7
 10
103.2736827519513
 20
87.51092953691656
  0
VERTEX
  8
0
  6
CONTINUOUS
 62
     7
 10
103.273557736554
 20
87.50523911009222
  0
VERTEX
  8
0
  6
CONTINUOUS
 62
     7
 10
103.2731876063948
 20
87.49954795953497
  0
VERTEX
  8
0
  6
CONTINUOUS
 62
     7
 10
103.2725797355226
 20
87.49387532941152
  0
VERTEX
  8
0
  6
CONTINUOUS
 62
     7
 10
103.2717414979864
 20
87.48824046388866
  0
VERTEX
  8
0
  6
CONTINUOUS
 62
     7
 10
103.2706802678351
 20
87.4826626071331
  0
VERTEX
  8
0
  6
CONTINUOUS
 62
     7
 10
103.2694034191178
 20
87.47716100331158
  0
VERTEX
  8
0
  6
CONTINUOUS
 62
     7
 10
103.2679183258832
 20
87.47175489659085
  0
VERTEX
  8
0
  6
CONTINUOUS
 62
     7
 10
103.2658204548008
 20
87.46524737286833
  0
VERTEX
  8
0
  6
CONTINUOUS
 62
     7
 10
103.2634359384492
 20
87.4588680492403
  0
VERTEX
  8
0
  6
CONTINUOUS
 62
     7
 10
103.2607867020771
 20
87.45262837286779
  0
VERTEX
  8
0
  6
CONTINUOUS
 62
     7
 10
103.2578946709332
 20
87.44653979091186
  0
VERTEX
  8
0
  6
CONTINUOUS
 62
     7
 10
103.2547817702664
 20
87.44061375053352
  0
VERTEX
  8
0
  6
CONTINUOUS
 62
     7
 10
103.2514699253252
 20
87.4348616988938
  0
VERTEX
  8
0
  6
CONTINUOUS
 62
     7
 10
103.2479810613585
 20
87.42929508315376
  0
VERTEX
  8
0
  6
CONTINUOUS
 62
     7
 10
103.2414307433144
 20
87.41989052383737
  0
VERTEX
  8
0
  6
CONTINUOUS
 62
     7
 10
103.2344155227913
 20
87.41096836149858
  0
VERTEX
  8
0
  6
CONTINUOUS
 62
     7
 10
103.2269982779272
 20
87.40252135471012
  0
VERTEX
  8
0
  6
CONTINUOUS
 62
     7
 10
103.2192418868597
 20
87.39454226204472
  0
VERTEX
  8
0
  6
CONTINUOUS
 62
     7
 10
103.2112092277264
 20
87.3870238420751
  0
VERTEX
  8
0
  6
CONTINUOUS
 62
     7
 10
103.2029631786652
 20
87.37995885337399
  0
VERTEX
  8
0
  6
CONTINUOUS
 62
     7
 10
103.190884516456
 20
87.37059583807229
  0
VERTEX
  8
0
  6
CONTINUOUS
 62
     7
 10
103.1784452324645
 20
87.36199783975518
  0
VERTEX
  8
0
  6
CONTINUOUS
 62
     7
 10
103.1657034669865
 20
87.35414227610316
  0
VERTEX
  8
0
  6
CONTINUOUS
 62
     7
 10
103.1527173603175
 20
87.34700656479676
  0
VERTEX
  8
0
  6
CONTINUOUS
 62
     7
 10
103.1395450527533
 20
87.34056812351648
  0
VERTEX
  8
0
  6
CONTINUOUS
 62
     7
 10
103.1262446845895
 20
87.33480436994287
  0
VERTEX
  8
0
  6
CONTINUOUS
 62
     7
 10
103.1128743961217
 20
87.32969272175643
  0
VERTEX
  8
0
  6
CONTINUOUS
 62
     7
 10
103.0954368288824
 20
87.32398795037136
  0
VERTEX
  8
0
  6
CONTINUOUS
 62
     7
 10
103.077868884658
 20
87.31930511287652
  0
VERTEX
  8
0
  6
CONTINUOUS
 62
     7
 10
103.0602302297408
 20
87.3156510310278
  0
VERTEX
  8
0
  6
CONTINUOUS
 62
     7
 10
103.0425805304236
 20
87.31303252658101
  0
VERTEX
  8
0
  6
CONTINUOUS
 62
     7
 10
103.0249794529987
 20
87.31145642129198
  0
VERTEX
  8
0
  6
CONTINUOUS
 62
     7
 10
103.0074866637587
 20
87.31092953691657
  0
SEQEND
  8
0
  6
CONTINUOUS
 62
     7
  0
LINE
  8
0
  6
CONTINUOUS
 62
     7
 10
103.2736827519513
 20
87.51092953691656
 11
103.2736827519513
 21
89.11092953691657
  0
LINE
  8
0
  6
CONTINUOUS
 62
     7
 10
103.2736827519513
 20
89.11092953691657
 11
104.4
 21
89.11092953691657
  0
LINE
  8
0
  6
CONTINUOUS
 62
     7
 10
102.9335906626981
 20
89.11092953691657
 11
103.2736827519513
 21
89.11092953691657
  0
LINE
  8
0
  6
CONTINUOUS
 62
     7
 10
102.9335906626981
 20
87.31092953691657
 11
102.7958300402113
 21
87.31092953691657
  0
LINE
  8
0
  6
CONTINUOUS
 62
     7
 10
103.0074866637587
 20
87.31092953691657
 11
102.9335906626981
 21
87.31092953691657
  0
LINE
  8
0
  6
CONTINUOUS
 62
     7
 10
106.7263172480487
 20
89.11092953691657
 11
107.0664093373019
 21
89.11092953691657
  0
LINE
  8
0
  6
CONTINUOUS
 62
     7
 10
102.6580694177245
 20
89.11092953691657
 11
102.9335906626981
 21
89.11092953691657
  0
LINE
  8
0
  6
CONTINUOUS
 62
     7
 10
107.0664093373019
 20
87.31092953691657
 11
106.9925133362413
 21
87.31092953691657
  0
LINE
  8
0
  6
CONTINUOUS
 62
     7
 10
107.2041699597887
 20
87.31092953691657
 11
107.0664093373019
 21
87.31092953691657
  0
LINE
  8
0
  6
CONTINUOUS
 62
     7
 10
107.0664093373019
 20
89.11092953691657
 11
107.3419305822755
 21
89.11092953691657
  0
LINE
  8
0
  6
CONTINUOUS
 62
     7
 10
102.7958300402113
 20
87.31092953691657
 11
102.6801649221626
 21
87.31092953691657
  0
LINE
  8
0
  6
CONTINUOUS
 62
     7
 10
102.5351752297977
 20
89.11092953691657
 11
102.6580694177245
 21
89.11092953691657
  0
LINE
  8
0
  6
CONTINUOUS
 62
     7
 10
107.3419305822755
 20
89.11092953691657
 11
107.4648247702023
 21
89.11092953691657
  0
LINE
  8
0
  6
CONTINUOUS
 62
     7
 10
107.3198350778374
 20
87.31092953691657
 11
107.2041699597887
 21
87.31092953691657
  0
LINE
  8
0
  6
CONTINUOUS
 62
     7
 10
107.5748453854726
 20
87.51092953691656
 11
107.5748453854726
 21
89.11092953691657
  0
LINE
  8
0
  6
CONTINUOUS
 62
     7
 10
107.4648247702023
 20
89.11092953691657
 11
107.5748453854726
 21
89.11092953691657
  0
ARC
  8
0
  6
CONTINUOUS
 62
     7
 10
107.3748453854726
 20
87.51092953691656
 40
0.1999999999999919
 50
269.9999999999998
 51
0.0
  0
LINE
  8
0
  6
CONTINUOUS
 62
     7
 10
107.3748453854726
 20
87.31092953691657
 11
107.3198350778374
 21
87.31092953691657
  0
LINE
  8
0
  6
CONTINUOUS
 62
     7
 10
102.4251546145274
 20
87.51092953691656
 11
102.4251546145274
 21
89.11092953691657
  0
LINE
  8
0
  6
CONTINUOUS
 62
     7
 10
102.4251546145274
 20
89.11092953691657
 11
102.5351752297977
 21
89.11092953691657
  0
ARC
  8
0
  6
CONTINUOUS
 62
     7
 10
102.6251546145274
 20
87.51092953691656
 40
0.2000000000000057
 50
180.0
 51
269.9999999999999
  0
LINE
  8
0
  6
CONTINUOUS
 62
     7
 10
102.6801649221626
 20
87.31092953691657
 11
102.6251546145274
 21
87.31092953691657
  0
LINE
  8
0
  6
CONTINUOUS
 62
     7
 10
101.9586187348509
 20
87.51092953691656
 11
101.9118110320019
 21
87.31092953691657
  0
LINE
  8
0
  6
CONTINUOUS
 62
     7
 10
101.9586187348509
 20
87.51092953691656
 11
101.9586187348509
 21
89.11092953691657
  0
LINE
  8
0
  6
CONTINUOUS
 62
     7
 10
101.9586187348509
 20
89.11092953691657
 11
102.4251546145274
 21
89.11092953691657
  0
LINE
  8
0
  6
CONTINUOUS
 62
     7
 10
108.0413812651491
 20
87.51092953691658
 11
108.0413812651491
 21
89.11092953691657
  0
LINE
  8
0
  6
CONTINUOUS
 62
     7
 10
108.0881889679981
 20
87.31092953691657
 11
108.0413812651491
 21
87.51092953691658
  0
LINE
  8
0
  6
CONTINUOUS
 62
     7
 10
107.5748453854726
 20
89.11092953691657
 11
108.0413812651491
 21
89.11092953691657
  0
LINE
  8
0
  6
CONTINUOUS
 62
     7
 10
108.1404413314506
 20
87.31092953691657
 11
108.0881889679981
 21
87.31092953691657
  0
LINE
  8
0
  6
CONTINUOUS
 62
     7
 10
101.9118110320019
 20
87.31092953691657
 11
101.8595586685494
 21
87.31092953691657
  0
LINE
  8
0
  6
CONTINUOUS
 62
     7
 10
101.7181373123121
 20
89.11092953691657
 11
101.9586187348509
 21
89.11092953691657
  0
LINE
  8
0
  6
CONTINUOUS
 62
     7
 10
108.0413812651491
 20
89.11092953691657
 11
108.281862687688
 21
89.11092953691657
  0
LINE
  8
0
  6
CONTINUOUS
 62
     7
 10
101.6011106947582
 20
89.11092953691657
 11
101.7181373123121
 21
89.11092953691657
  0
LINE
  8
0
  6
CONTINUOUS
 62
     7
 10
101.8595586685494
 20
87.31092953691657
 11
101.8010453597725
 21
87.31092953691657
  0
LINE
  8
0
  6
CONTINUOUS
 62
     7
 10
108.281862687688
 20
89.11092953691657
 11
108.3988893052418
 21
89.11092953691657
  0
LINE
  8
0
  6
CONTINUOUS
 62
     7
 10
108.1989546402276
 20
87.31092953691657
 11
108.1404413314506
 21
87.31092953691657
  0
LINE
  8
0
  6
CONTINUOUS
 62
     7
 10
101.6
 20
89.11092953691657
 11
101.6011106947582
 21
89.11092953691657
  0
LINE
  8
0
  6
CONTINUOUS
 62
     7
 10
108.3988893052418
 20
89.11092953691657
 11
108.4
 21
89.11092953691657
  0
LINE
  8
0
  6
CONTINUOUS
 62
     7
 10
102.6992102790946
 20
87.07068945761385
 11
103.0490178325803
 21
87.09096676853821
  0
LINE
  8
0
  6
CONTINUOUS
 62
     7
 10
107.3653847809539
 20
86.86791634837017
 11
107.3774025123951
 21
86.87162135017581
  0
LINE
  8
0
  6
CONTINUOUS
 62
     7
 10
107.1304887749907
 20
86.84763903744579
 11
107.3653847809539
 21
86.86791634837017
  0
LINE
  8
0
  6
CONTINUOUS
 62
     7
 10
106.6356235433206
 20
86.8273617265214
 11
107.1304887749907
 21
86.84763903744579
  0
LINE
  8
0
  6
CONTINUOUS
 62
     7
 10
105.9411741640617
 20
86.80708441559705
 11
106.6356235433206
 21
86.8273617265214
  0
LINE
  8
0
  6
CONTINUOUS
 62
     7
 10
105.1318796274111
 20
86.78680710467269
 11
105.9411741640617
 21
86.80708441559705
  0
LINE
  8
0
  6
CONTINUOUS
 62
     7
 10
104.3064927062188
 20
86.76652979374829
 11
105.1318796274111
 21
86.78680710467269
  0
LINE
  8
0
  6
CONTINUOUS
 62
     7
 10
103.5657298188666
 20
86.74625248282395
 11
104.3064927062188
 21
86.76652979374829
  0
LINE
  8
0
  6
CONTINUOUS
 62
     7
 10
102.9999812816574
 20
86.72597517189958
 11
103.5657298188666
 21
86.74625248282395
  0
LINE
  8
0
  6
CONTINUOUS
 62
     7
 10
102.6782815860612
 20
86.7056978609752
 11
102.9999812816574
 21
86.72597517189958
  0
LINE
  8
0
  6
CONTINUOUS
 62
     7
 10
107.3540380747935
 20
86.5029247517459
 11
107.3776543575163
 21
86.5088983767674
  0
LINE
  8
0
  6
CONTINUOUS
 62
     7
 10
107.0898335215045
 20
86.48264744076101
 11
107.3540380747935
 21
86.5029247517459
  0
LINE
  8
0
  6
CONTINUOUS
 62
     7
 10
106.5706206354629
 20
86.46237013000646
 11
107.0898335215045
 21
86.48264744076101
  0
LINE
  8
0
  6
CONTINUOUS
 62
     7
 10
105.8597554529506
 20
86.44209281873128
 11
106.5706206354629
 21
86.46237013000646
  0
LINE
  8
0
  6
CONTINUOUS
 62
     7
 10
105.0439801061433
 20
86.42181550790778
 11
105.8597554529506
 21
86.44209281873128
  0
LINE
  8
0
  6
CONTINUOUS
 62
     7
 10
104.2228383212669
 20
86.40153820115664
 11
105.0439801061433
 21
86.42181550790778
  0
LINE
  8
0
  6
CONTINUOUS
 62
     7
 10
103.4965271993725
 20
86.3812608595169
 11
104.2228383212669
 21
86.40153820115664
  0
LINE
  8
0
  6
CONTINUOUS
 62
     7
 10
102.9536792721384
 20
86.36098370625133
 11
103.4965271993725
 21
86.3812608595169
  0
LINE
  8
0
  6
CONTINUOUS
 62
     7
 10
102.6605199239566
 20
86.340705715317
 11
102.9536792721384
 21
86.36098370625133
  0
LINE
  8
0
  6
CONTINUOUS
 62
     7
 10
102.6605198072751
 20
86.64678251257789
 11
102.6222829089324
 21
86.63864045570442
  0
LINE
  8
0
  6
CONTINUOUS
 62
     7
 10
102.9536790486622
 20
86.66706050830912
 11
102.6605198072751
 21
86.64678251257789
  0
LINE
  8
0
  6
CONTINUOUS
 62
     7
 10
103.4965267070035
 20
86.68733765677779
 11
102.9536790486622
 21
86.66706050830912
  0
LINE
  8
0
  6
CONTINUOUS
 62
     7
 10
104.2228377280913
 20
86.70761499860282
 11
103.4965267070035
 21
86.68733765677779
  0
LINE
  8
0
  6
CONTINUOUS
 62
     7
 10
105.0439794710595
 20
86.72789230516867
 11
104.2228377280913
 21
86.70761499860282
  0
LINE
  8
0
  6
CONTINUOUS
 62
     7
 10
105.8597548599145
 20
86.74816961597313
 11
105.0439794710595
 21
86.72789230516867
  0
LINE
  8
0
  6
CONTINUOUS
 62
     7
 10
106.5706201582195
 20
86.76844692726736
 11
105.8597548599145
 21
86.74816961597313
  0
LINE
  8
0
  6
CONTINUOUS
 62
     7
 10
107.0898332174748
 20
86.78872423801782
 11
106.5706201582195
 21
86.76844692726736
  0
LINE
  8
0
  6
CONTINUOUS
 62
     7
 10
107.3540379812279
 20
86.8090015490068
 11
107.0898332174748
 21
86.78872423801782
  0
LINE
  8
0
  6
CONTINUOUS
 62
     7
 10
102.678281446352
 20
87.01177465823609
 11
102.6225947050179
 21
87.0016648491163
  0
LINE
  8
0
  6
CONTINUOUS
 62
     7
 10
102.9999809373467
 20
87.03205196916046
 11
102.678281446352
 21
87.01177465823609
  0
LINE
  8
0
  6
CONTINUOUS
 62
     7
 10
103.5657293119685
 20
87.05232928008483
 11
102.9999809373467
 21
87.03205196916046
  0
LINE
  8
0
  6
CONTINUOUS
 62
     7
 10
104.3064920985867
 20
87.07260659100918
 11
103.5657293119685
 21
87.05232928008483
  0
POLYLINE
  8
0
  6
CONTINUOUS
 62
     7
 66
     1
  0
VERTEX
  8
0
  6
CONTINUOUS
 62
     7
 10
104.3112335838978
 20
87.07272683387174
  0
VERTEX
  8
0
  6
CONTINUOUS
 62
     7
 10
104.3110359616448
 20
87.07272182375247
  0
VERTEX
  8
0
  6
CONTINUOUS
 62
     7
 10
104.3108383446296
 20
87.07271681363319
  0
VERTEX
  8
0
  6
CONTINUOUS
 62
     7
 10
104.3106407328537
 20
87.07271180351393
  0
VERTEX
  8
0
  6
CONTINUOUS
 62
     7
 10
104.3104431263187
 20
87.07270679339464
  0
VERTEX
  8
0
  6
CONTINUOUS
 62
     7
 10
104.310245525026
 20
87.07270178327539
  0
VERTEX
  8
0
  6
CONTINUOUS
 62
     7
 10
104.3100479289774
 20
87.07269677315611
  0
VERTEX
  8
0
  6
CONTINUOUS
 62
     7
 10
104.3098503381742
 20
87.07269176303684
  0
VERTEX
  8
0
  6
CONTINUOUS
 62
     7
 10
104.3096527526181
 20
87.07268675291756
  0
VERTEX
  8
0
  6
CONTINUOUS
 62
     7
 10
104.3094551723106
 20
87.0726817427983
  0
VERTEX
  8
0
  6
CONTINUOUS
 62
     7
 10
104.3092575972533
 20
87.07267673267901
  0
VERTEX
  8
0
  6
CONTINUOUS
 62
     7
 10
104.3090600274477
 20
87.07267172255973
  0
VERTEX
  8
0
  6
CONTINUOUS
 62
     7
 10
104.3088624628954
 20
87.07266671244045
  0
VERTEX
  8
0
  6
CONTINUOUS
 62
     7
 10
104.3086649035979
 20
87.0726617023212
  0
VERTEX
  8
0
  6
CONTINUOUS
 62
     7
 10
104.3084673495567
 20
87.0726566922019
  0
VERTEX
  8
0
  6
CONTINUOUS
 62
     7
 10
104.3082698007735
 20
87.07265168208265
  0
VERTEX
  8
0
  6
CONTINUOUS
 62
     7
 10
104.3080722572498
 20
87.07264667196338
  0
VERTEX
  8
0
  6
CONTINUOUS
 62
     7
 10
104.307874718987
 20
87.0726416618441
  0
VERTEX
  8
0
  6
CONTINUOUS
 62
     7
 10
104.3076771859869
 20
87.07263665172484
  0
VERTEX
  8
0
  6
CONTINUOUS
 62
     7
 10
104.3074796582508
 20
87.07263164160557
  0
VERTEX
  8
0
  6
CONTINUOUS
 62
     7
 10
104.3072821357805
 20
87.07262663148629
  0
VERTEX
  8
0
  6
CONTINUOUS
 62
     7
 10
104.3070846185773
 20
87.072621621367
  0
VERTEX
  8
0
  6
CONTINUOUS
 62
     7
 10
104.3068871066429
 20
87.07261661124772
  0
VERTEX
  8
0
  6
CONTINUOUS
 62
     7
 10
104.3066895999789
 20
87.07261160112846
  0
VERTEX
  8
0
  6
CONTINUOUS
 62
     7
 10
104.3064920985867
 20
87.07260659100919
  0
SEQEND
  8
0
  6
CONTINUOUS
 62
     7
  0
LINE
  8
0
  6
CONTINUOUS
 62
     7
 10
105.1318789931894
 20
87.09288390193356
 11
104.3112335690701
 21
87.0727268060519
  0
LINE
  8
0
  6
CONTINUOUS
 62
     7
 10
107.3799999999998
 20
86.81753939892108
 11
107.3540379812279
 21
86.80900154900678
  0
LINE
  8
0
  6
CONTINUOUS
 62
     7
 10
102.6200000000008
 20
86.33003393939484
 11
102.6605199239566
 21
86.340705715317
  0
LINE
  8
0
  6
CONTINUOUS
 62
     7
 10
102.6200000000002
 20
86.69289115395749
 11
102.6782815860612
 21
86.7056978609752
  0
LINE
  8
0
  6
CONTINUOUS
 62
     7
 10
102.6200000000011
 20
87.05574832869486
 11
102.6992102790946
 21
87.07068945761385
  0
LINE
  8
0
  6
CONTINUOUS
 62
     7
 10
107.28
 20
84.91092953691657
 11
102.72
 21
84.91092953691657
  0
ARC
  8
0
  6
CONTINUOUS
 62
     7
 10
147.7847095040283
 20
93.21092953691657
 40
0.1514752662829162
 50
81.8476662237365
 51
278.1523337762427
  0
LINE
  8
0
  6
CONTINUOUS
 62
     7
 10
147.8061895234458
 20
93.06098499696493
 11
147.6629076056326
 21
93.16717736363184
  0
ARC
  8
0
  6
CONTINUOUS
 62
     7
 10
150.2324491058718
 20
93.18798044893373
 40
0.1327433180853011
 50
253.0775083052653
 51
33.4725058648603
  0
LINE
  8
0
  6
CONTINUOUS
 62
     7
 10
150.1938104765543
 20
93.06098499696493
 11
147.7542452860455
 21
93.89202792982042
  0
LINE
  8
0
  6
CONTINUOUS
 62
     7
 10
149.0
 20
93.06098499696492
 11
149.0
 21
93.36087407686821
  0
LINE
  8
0
  6
CONTINUOUS
 62
     7
 10
149.0
 20
93.06098499696493
 11
147.7560197538067
 21
93.49085130100295
  0
ARC
  8
0
  6
CONTINUOUS
 62
     7
 10
143.7309797630436
 20
57.54261591174232
 40
35.90706221248898
 50
80.27058340639854
 51
81.56191933424867
  0
LINE
  8
0
  6
CONTINUOUS
 62
     7
 10
149.7991093136606
 20
92.93322088662913
 11
149.7638447744353
 21
93.0410957497263
  0
ARC
  8
0
  6
CONTINUOUS
 62
     7
 10
144.6523672033295
 20
81.90364014041964
 40
12.25439188247194
 50
65.34748848896467
 51
69.21994006561779
  0
POLYLINE
  8
0
  6
CONTINUOUS
 62
     7
 66
     1
  0
VERTEX
  8
0
  6
CONTINUOUS
 62
     7
 10
150.3784935999993
 20
94.06103180933259
  0
VERTEX
  8
0
  6
CONTINUOUS
 62
     7
 10
150.3320432227925
 20
94.16043334876339
  0
VERTEX
  8
0
  6
CONTINUOUS
 62
     7
 10
150.2484159410179
 20
94.22829828107388
  0
SEQEND
  8
0
  6
CONTINUOUS
 62
     7
  0
ARC
  8
0
  6
CONTINUOUS
 62
     7
 10
148.0302516007896
 20
89.71786251574157
 40
5.026358904162082
 50
63.81273582447056
 51
76.77535556193506
  0
LINE
  8
0
  6
CONTINUOUS
 62
     7
 10
150.0934716428383
 20
94.61093238309927
 11
150.2431304848674
 21
94.53150626766266
  0
LINE
  8
0
  6
CONTINUOUS
 62
     7
 10
150.3784935999983
 20
94.46098541114713
 11
150.2736393042607
 21
94.61092536257466
  0
LINE
  8
0
  6
CONTINUOUS
 62
     7
 10
147.6215064000024
 20
93.56082979799628
 11
147.8061895234458
 21
93.36087407686821
  0
POLYLINE
  8
0
  6
CONTINUOUS
 62
     7
 66
     1
  0
VERTEX
  8
0
  6
CONTINUOUS
 62
     7
 10
147.6215064000034
 20
93.96085739103184
  0
VERTEX
  8
0
  6
CONTINUOUS
 62
     7
 10
147.6710685999728
 20
93.85811724376099
  0
VERTEX
  8
0
  6
CONTINUOUS
 62
     7
 10
147.755187656044
 20
93.791236646989
  0
SEQEND
  8
0
  6
CONTINUOUS
 62
     7
  0
ARC
  8
0
  6
CONTINUOUS
 62
     7
 10
150.3365796231206
 20
99.24236992708413
 40
6.031454097068819
 50
244.6600378965121
 51
257.1968823877195
  0
POLYLINE
  8
0
  6
CONTINUOUS
 62
     7
 66
     1
  0
VERTEX
  8
0
  6
CONTINUOUS
 62
     7
 10
147.6215064000013
 20
94.36081020378293
  0
VERTEX
  8
0
  6
CONTINUOUS
 62
     7
 10
147.6698595345021
 20
94.2593900749373
  0
VERTEX
  8
0
  6
CONTINUOUS
 62
     7
 10
147.7532226775858
 20
94.19248507420338
  0
SEQEND
  8
0
  6
CONTINUOUS
 62
     7
  0
ARC
  8
0
  6
CONTINUOUS
 62
     7
 10
194.1923081964129
 20
226.483475738536
 40
140.2051884730929
 50
250.6570188557662
 51
251.7107059566925
  0
LINE
  8
0
  6
CONTINUOUS
 62
     7
 10
150.3784935999956
 20
93.26100697998189
 11
150.3775615228949
 21
93.27506534689034
  0
POLYLINE
  8
0
  6
CONTINUOUS
 62
     7
 66
     1
  0
VERTEX
  8
0
  6
CONTINUOUS
 62
     7
 10
150.3775615228949
 20
93.27506534689034
  0
VERTEX
  8
0
  6
CONTINUOUS
 62
     7
 10
150.317692946017
 20
93.37484394091939
  0
VERTEX
  8
0
  6
CONTINUOUS
 62
     7
 10
150.2262451880827
 20
93.442250055276
  0
SEQEND
  8
0
  6
CONTINUOUS
 62
     7
  0
ARC
  8
0
  6
CONTINUOUS
 62
     7
 10
196.5800291036115
 20
232.4080935593392
 40
146.492931379242
 50
250.5317540082048
 51
251.5532385411343
  0
LINE
  8
0
  6
CONTINUOUS
 62
     7
 10
147.7263368929036
 20
94.61093238309927
 11
150.2453964532798
 21
93.73004922066515
  0
POLYLINE
  8
0
  6
CONTINUOUS
 62
     7
 66
     1
  0
VERTEX
  8
0
  6
CONTINUOUS
 62
     7
 10
150.3784935999994
 20
93.66098008825762
  0
VERTEX
  8
0
  6
CONTINUOUS
 62
     7
 10
150.3332102461669
 20
93.75920790035275
  0
VERTEX
  8
0
  6
CONTINUOUS
 62
     7
 10
150.2503266966924
 20
93.82699354394839
  0
SEQEND
  8
0
  6
CONTINUOUS
 62
     7
  0
ARC
  8
0
  6
CONTINUOUS
 62
     7
 10
135.778655450278
 20
54.45473190591423
 40
41.94763706286819
 50
69.81858774586594
 51
73.19481485293745
  0
LINE
  8
0
  6
CONTINUOUS
 62
     7
 10
148.8198085357419
 20
94.61093238309925
 11
150.2432829418681
 21
94.13146212540384
  0
LINE
  8
0
  6
CONTINUOUS
 62
     7
 10
147.6215064
 20
92.41092953691658
 11
149.0
 21
92.41092953691658
  0
ARC
  8
0
  6
CONTINUOUS
 62
     7
 10
149.1321739655607
 20
97.9307378575948
 40
5.047051383168544
 50
254.7682094477973
 51
261.9660686862957
  0
LINE
  8
0
  6
CONTINUOUS
 62
     7
 10
148.4268004551044
 20
92.93322088662912
 11
148.3881572219664
 21
93.04109574972651
  0
ARC
  8
0
  6
CONTINUOUS
 62
     7
 10
149.4684461947569
 20
95.69657770542301
 40
2.866811588117083
 50
234.5615775198146
 51
247.8627878532122
  0
LINE
  8
0
  6
CONTINUOUS
 62
     7
 10
150.1938104765543
 20
93.06098499696495
 11
150.3784935999998
 21
92.9513934661604
  0
LINE
  8
0
  6
CONTINUOUS
 62
     7
 10
149.0
 20
92.41092953691658
 11
150.3784936
 21
92.41092953691658
  0
LINE
  8
0
  6
CONTINUOUS
 62
     7
 10
150.3431770216819
 20
93.26119326991925
 11
150.1938104765543
 21
93.36087407686821
  0
LINE
  8
0
  6
CONTINUOUS
 62
     7
 10
147.6289219265614
 20
92.93171682243408
 11
147.6215064000004
 21
93.07599088982799
  0
LINE
  8
0
  6
CONTINUOUS
 62
     7
 10
146.2359377946935
 20
94.61092953691657
 11
148.3205435207448
 21
94.61092953691657
  0
LINE
  8
0
  6
CONTINUOUS
 62
     7
 10
149.6794564792552
 20
94.61092953691657
 11
151.7640622053065
 21
94.61092953691657
  0
LINE
  8
0
  6
CONTINUOUS
 62
     7
 10
149.6588289034572
 20
94.61092953691657
 11
149.6794564792552
 21
94.61092953691657
  0
LINE
  8
0
  6
CONTINUOUS
 62
     7
 10
148.3205435207448
 20
94.61092953691657
 11
148.3411710965428
 21
94.61092953691657
  0
LINE
  8
0
  6
CONTINUOUS
 62
     7
 10
149.6588289034572
 20
94.61092953691657
 11
148.3411710965428
 21
94.61092953691657
  0
LINE
  8
0
  6
CONTINUOUS
 62
     7
 10
151.7640622053065
 20
94.61092953691657
 11
151.7680746359355
 21
94.61092953691657
  0
LINE
  8
0
  6
CONTINUOUS
 62
     7
 10
146.2319253640645
 20
94.61092953691657
 11
146.2359377946935
 21
94.61092953691657
  0
LINE
  8
0
  6
CONTINUOUS
 62
     7
 10
152.4269035393927
 20
94.61092953691657
 11
151.7680746359355
 21
94.61092953691657
  0
LINE
  8
0
  6
CONTINUOUS
 62
     7
 10
146.2319253640646
 20
94.61092953691657
 11
145.5730964606073
 21
94.61092953691657
  0
LINE
  8
0
  6
CONTINUOUS
 62
     7
 10
152.4269035393927
 20
94.61092953691657
 11
152.4435186845617
 21
94.61092953691657
  0
LINE
  8
0
  6
CONTINUOUS
 62
     7
 10
145.5564813154383
 20
94.61092953691657
 11
145.5730964606073
 21
94.61092953691657
  0
LINE
  8
0
  6
CONTINUOUS
 62
     7
 10
152.4435186845617
 20
94.61092953691657
 11
153.0018507338213
 21
94.61092953691657
  0
LINE
  8
0
  6
CONTINUOUS
 62
     7
 10
144.9981492661787
 20
94.61092953691657
 11
145.5564813154383
 21
94.61092953691657
  0
LINE
  8
0
  6
CONTINUOUS
 62
     7
 10
63.76406220530653
 20
94.61092953691657
 11
61.67945647925519
 21
94.61092953691657
  0
LINE
  8
0
  6
CONTINUOUS
 62
     7
 10
60.32054352074481
 20
94.61092953691657
 11
58.23593779469349
 21
94.61092953691657
  0
LINE
  8
0
  6
CONTINUOUS
 62
     7
 10
61.67945647925519
 20
94.61092953691657
 11
61.6588289034572
 21
94.61092953691657
  0
LINE
  8
0
  6
CONTINUOUS
 62
     7
 10
60.34117109654282
 20
94.61092953691657
 11
60.32054352074481
 21
94.61092953691657
  0
LINE
  8
0
  6
CONTINUOUS
 62
     7
 10
60.34117109654282
 20
94.61092953691657
 11
61.6588289034572
 21
94.61092953691657
  0
LINE
  8
0
  6
CONTINUOUS
 62
     7
 10
58.23593779469349
 20
94.61092953691657
 11
58.23192536406452
 21
94.61092953691657
  0
LINE
  8
0
  6
CONTINUOUS
 62
     7
 10
63.76807463593551
 20
94.61092953691657
 11
63.76406220530653
 21
94.61092953691657
  0
LINE
  8
0
  6
CONTINUOUS
 62
     7
 10
57.57309646060732
 20
94.61092953691657
 11
58.23192536406452
 21
94.61092953691657
  0
LINE
  8
0
  6
CONTINUOUS
 62
     7
 10
63.76807463593549
 20
94.61092953691657
 11
64.42690353939267
 21
94.61092953691657
  0
LINE
  8
0
  6
CONTINUOUS
 62
     7
 10
57.57309646060732
 20
94.61092953691657
 11
57.5564813154383
 21
94.61092953691657
  0
LINE
  8
0
  6
CONTINUOUS
 62
     7
 10
64.44351868456171
 20
94.61092953691657
 11
64.42690353939267
 21
94.61092953691657
  0
LINE
  8
0
  6
CONTINUOUS
 62
     7
 10
57.5564813154383
 20
94.61092953691657
 11
56.99814926617869
 21
94.61092953691657
  0
LINE
  8
0
  6
CONTINUOUS
 62
     7
 10
65.00185073382134
 20
94.61092953691657
 11
64.44351868456171
 21
94.61092953691657
  0
ARC
  8
0
  6
CONTINUOUS
 62
     7
 10
62.21529049597173
 20
93.21092953691657
 40
0.151475266282924
 50
261.8476662237365
 51
98.15233377626605
  0
LINE
  8
0
  6
CONTINUOUS
 62
     7
 10
62.19381047655427
 20
93.06098499696493
 11
62.33709239436742
 21
93.16717736363185
  0
ARC
  8
0
  6
CONTINUOUS
 62
     7
 10
59.76755087911607
 20
93.18798042981669
 40
0.1327433041657342
 50
146.5274691278172
 51
286.9225002956335
  0
LINE
  8
0
  6
CONTINUOUS
 62
     7
 10
59.80618952344574
 20
93.06098499696493
 11
62.2460384619295
 21
93.89221174382679
  0
LINE
  8
0
  6
CONTINUOUS
 62
     7
 10
60.99999999999999
 20
93.06098499696492
 11
61.0
 21
93.36087407686821
  0
LINE
  8
0
  6
CONTINUOUS
 62
     7
 10
61.0
 20
93.06098499696493
 11
62.24398024619332
 21
93.49085130100295
  0
ARC
  8
0
  6
CONTINUOUS
 62
     7
 10
66.26902023696314
 20
57.54261591169985
 40
35.90706221253198
 50
98.438080665752
 51
99.72941659360062
  0
LINE
  8
0
  6
CONTINUOUS
 62
     7
 10
60.2008906863394
 20
92.93322088662913
 11
60.23615522556472
 21
93.0410957497263
  0
ARC
  8
0
  6
CONTINUOUS
 62
     7
 10
65.34763279667055
 20
81.90364014041964
 40
12.25439188247194
 50
110.7800599343822
 51
114.6525115110354
  0
POLYLINE
  8
0
  6
CONTINUOUS
 62
     7
 66
     1
  0
VERTEX
  8
0
  6
CONTINUOUS
 62
     7
 10
59.62150640000055
 20
93.66098008825762
  0
VERTEX
  8
0
  6
CONTINUOUS
 62
     7
 10
59.66678975383315
 20
93.75920790035275
  0
VERTEX
  8
0
  6
CONTINUOUS
 62
     7
 10
59.74967330330762
 20
93.82699354394839
  0
SEQEND
  8
0
  6
CONTINUOUS
 62
     7
  0
ARC
  8
0
  6
CONTINUOUS
 62
     7
 10
74.22134454971874
 20
54.45473190592393
 40
41.94763706285796
 50
106.805185147062
 51
110.1814122541344
  0
LINE
  8
0
  6
CONTINUOUS
 62
     7
 10
62.27366310709643
 20
94.61093238309927
 11
59.75460354672023
 21
93.73004922066517
  0
LINE
  8
0
  6
CONTINUOUS
 62
     7
 10
59.62150640000449
 20
93.26100697998189
 11
59.62243847710513
 21
93.27506534689034
  0
POLYLINE
  8
0
  6
CONTINUOUS
 62
     7
 66
     1
  0
VERTEX
  8
0
  6
CONTINUOUS
 62
     7
 10
59.62243847710513
 20
93.27506534689034
  0
VERTEX
  8
0
  6
CONTINUOUS
 62
     7
 10
59.68230705398298
 20
93.37484394091939
  0
VERTEX
  8
0
  6
CONTINUOUS
 62
     7
 10
59.77375481191735
 20
93.442250055276
  0
SEQEND
  8
0
  6
CONTINUOUS
 62
     7
  0
ARC
  8
0
  6
CONTINUOUS
 62
     7
 10
13.41997089646364
 20
232.4080935591176
 40
146.492931379008
 50
288.4467614588652
 51
289.4682459917965
  0
POLYLINE
  8
0
  6
CONTINUOUS
 62
     7
 66
     1
  0
VERTEX
  8
0
  6
CONTINUOUS
 62
     7
 10
62.37849359999876
 20
94.36081020378293
  0
VERTEX
  8
0
  6
CONTINUOUS
 62
     7
 10
62.3301404654979
 20
94.2593900749373
  0
VERTEX
  8
0
  6
CONTINUOUS
 62
     7
 10
62.24677732241421
 20
94.19248507420338
  0
SEQEND
  8
0
  6
CONTINUOUS
 62
     7
  0
ARC
  8
0
  6
CONTINUOUS
 62
     7
 10
15.8076918035871
 20
226.483475738536
 40
140.2051884730929
 50
288.2892940433075
 51
289.3429811442338
  0
POLYLINE
  8
0
  6
CONTINUOUS
 62
     7
 66
     1
  0
VERTEX
  8
0
  6
CONTINUOUS
 62
     7
 10
62.37849359999658
 20
93.96085739103185
  0
VERTEX
  8
0
  6
CONTINUOUS
 62
     7
 10
62.32893140002722
 20
93.85811724376099
  0
VERTEX
  8
0
  6
CONTINUOUS
 62
     7
 10
62.24481234395599
 20
93.791236646989
  0
SEQEND
  8
0
  6
CONTINUOUS
 62
     7
  0
ARC
  8
0
  6
CONTINUOUS
 62
     7
 10
59.66342037687919
 20
99.24236992708474
 40
6.031454097069456
 50
282.8031176122809
 51
295.3399621034871
  0
LINE
  8
0
  6
CONTINUOUS
 62
     7
 10
62.37849359999765
 20
93.56082979799628
 11
62.19381047655427
 21
93.36087407686821
  0
LINE
  8
0
  6
CONTINUOUS
 62
     7
 10
59.62150640000173
 20
94.46098541114713
 11
59.72636069573933
 21
94.61092536257466
  0
LINE
  8
0
  6
CONTINUOUS
 62
     7
 10
59.90652835716173
 20
94.61093238309927
 11
59.75659335212768
 21
94.53132901462573
  0
POLYLINE
  8
0
  6
CONTINUOUS
 62
     7
 66
     1
  0
VERTEX
  8
0
  6
CONTINUOUS
 62
     7
 10
59.62150640000075
 20
94.06103180933259
  0
VERTEX
  8
0
  6
CONTINUOUS
 62
     7
 10
59.6679567772075
 20
94.16043334876339
  0
VERTEX
  8
0
  6
CONTINUOUS
 62
     7
 10
59.75158405898209
 20
94.22829828107388
  0
SEQEND
  8
0
  6
CONTINUOUS
 62
     7
  0
ARC
  8
0
  6
CONTINUOUS
 62
     7
 10
61.96974839921017
 20
89.71786251574228
 40
5.02635890416133
 50
103.2246444380639
 51
116.1872641755304
  0
LINE
  8
0
  6
CONTINUOUS
 62
     7
 10
61.18019146425814
 20
94.61093238309925
 11
59.75644776319657
 21
94.13128926865346
  0
LINE
  8
0
  6
CONTINUOUS
 62
     7
 10
62.37849360000001
 20
92.41092953691658
 11
61.00000000000001
 21
92.41092953691658
  0
LINE
  8
0
  6
CONTINUOUS
 62
     7
 10
59.80618952344574
 20
93.06098499696495
 11
59.62150640000021
 21
92.9513934661604
  0
ARC
  8
0
  6
CONTINUOUS
 62
     7
 10
60.86782603443919
 20
97.93073785759555
 40
5.047051383169311
 50
278.0339313137048
 51
285.2317905522023
  0
LINE
  8
0
  6
CONTINUOUS
 62
     7
 10
61.57319954489566
 20
92.93322088662912
 11
61.61184277803358
 21
93.04109574972651
  0
ARC
  8
0
  6
CONTINUOUS
 62
     7
 10
60.53155380524323
 20
95.69657770542287
 40
2.866811588116907
 50
292.1372121467872
 51
305.4384224801859
  0
LINE
  8
0
  6
CONTINUOUS
 62
     7
 10
61.00000000000001
 20
92.41092953691658
 11
59.6215064
 21
92.41092953691658
  0
LINE
  8
0
  6
CONTINUOUS
 62
     7
 10
59.65682300687151
 20
93.26119329145335
 11
59.80618952344572
 21
93.36087407686821
  0
LINE
  8
0
  6
CONTINUOUS
 62
     7
 10
62.37160761700504
 20
92.93170292115298
 11
62.37849359999959
 21
93.07599088982798
  0
LINE
  8
0
  6
CONTINUOUS
 62
     7
 10
153.8485281374239
 20
103.4109295369166
 11
155.262741699797
 21
103.4109295369166
  0
LINE
  8
0
  6
CONTINUOUS
 62
     7
 10
155.262741699797
 20
103.2109295369166
 11
153.8485281374239
 21
103.2109295369166
  0
LINE
  8
0
  6
CONTINUOUS
 62
     7
 10
153.8485281374239
 20
103.4109295369166
 11
56.1514718625761
 21
103.4109295369166
  0
LINE
  8
0
  6
CONTINUOUS
 62
     7
 10
153.8485281374239
 20
103.2109295369166
 11
56.1514718625761
 21
103.2109295369166
  0
LINE
  8
0
  6
CONTINUOUS
 62
     7
 10
54.73725830020301
 20
103.4109295369166
 11
56.1514718625761
 21
103.4109295369166
  0
LINE
  8
0
  6
CONTINUOUS
 62
     7
 10
56.1514718625761
 20
103.2109295369166
 11
54.73725830020301
 21
103.2109295369166
  0
LINE
  8
0
  6
CONTINUOUS
 62
     7
 10
162.0142135623731
 20
103.4109295369166
 11
155.262741699797
 21
103.4109295369166
  0
LINE
  8
0
  6
CONTINUOUS
 62
     7
 10
162.0142135623731
 20
103.2109295369166
 11
155.262741699797
 21
103.2109295369166
  0
LINE
  8
0
  6
CONTINUOUS
 62
     7
 10
47.98578643762691
 20
103.4109295369166
 11
54.737258300203
 21
103.4109295369166
  0
LINE
  8
0
  6
CONTINUOUS
 62
     7
 10
47.98578643762691
 20
103.2109295369166
 11
54.737258300203
 21
103.2109295369166
  0
LINE
  8
0
  6
CONTINUOUS
 62
     7
 10
110.7380969839432
 20
93.09343180421139
 11
155.7979738316686
 21
97.0356602082616
  0
LINE
  8
0
  6
CONTINUOUS
 62
     7
 10
108.0405591591021
 20
92.85742782510542
 11
110.7380969839433
 21
93.09343180421139
  0
POLYLINE
  8
0
  6
CONTINUOUS
 62
     7
 66
     1
  0
VERTEX
  8
0
  6
CONTINUOUS
 62
     7
 10
108.0405591591021
 20
92.85742782510542
  0
VERTEX
  8
0
  6
CONTINUOUS
 62
     7
 10
107.3889520019843
 20
92.90421327801798
  0
VERTEX
  8
0
  6
CONTINUOUS
 62
     7
 10
106.6455387591699
 20
92.93897800580505
  0
VERTEX
  8
0
  6
CONTINUOUS
 62
     7
 10
105.8388883846694
 20
92.96038601947409
  0
VERTEX
  8
0
  6
CONTINUOUS
 62
     7
 10
105.0
 20
92.96761462106554
  0
VERTEX
  8
0
  6
CONTINUOUS
 62
     7
 10
104.1611116153307
 20
92.96038601947409
  0
VERTEX
  8
0
  6
CONTINUOUS
 62
     7
 10
103.3544612408302
 20
92.93897800580505
  0
VERTEX
  8
0
  6
CONTINUOUS
 62
     7
 10
102.6110479980158
 20
92.90421327801798
  0
VERTEX
  8
0
  6
CONTINUOUS
 62
     7
 10
101.9594408408979
 20
92.85742782510543
  0
SEQEND
  8
0
  6
CONTINUOUS
 62
     7
  0
LINE
  8
0
  6
CONTINUOUS
 62
     7
 10
99.2619030160567
 20
93.0934318042114
 11
101.9594408408979
 21
92.85742782510542
  0
LINE
  8
0
  6
CONTINUOUS
 62
     7
 10
99.26190301605678
 20
93.09343180421139
 11
54.20202616833145
 21
97.0356602082616
  0
LINE
  8
0
  6
CONTINUOUS
 62
     7
 10
54.20202616833145
 20
97.0356602082616
 11
51.88683616676468
 21
97.23821308730726
  0
LINE
  8
0
  6
CONTINUOUS
 62
     7
 10
158.1131638332354
 20
97.23821308730726
 11
155.7979738316686
 21
97.0356602082616
  0
LINE
  8
0
  6
CONTINUOUS
 62
     7
 10
162.6
 20
103.4109295369166
 11
162.6
 21
103.2109295369166
  0
LINE
  8
0
  6
CONTINUOUS
 62
     7
 10
162.0142135623731
 20
103.4109295369166
 11
162.6
 21
103.4109295369166
  0
LINE
  8
0
  6
CONTINUOUS
 62
     7
 10
162.6
 20
103.2109295369166
 11
162.0142135623731
 21
103.2109295369166
  0
LINE
  8
0
  6
CONTINUOUS
 62
     7
 10
47.4
 20
103.2109295369166
 11
47.4
 21
103.4109295369166
  0
LINE
  8
0
  6
CONTINUOUS
 62
     7
 10
47.4
 20
103.4109295369166
 11
47.98578643762691
 21
103.4109295369166
  0
LINE
  8
0
  6
CONTINUOUS
 62
     7
 10
47.98578643762691
 20
103.2109295369166
 11
47.4
 21
103.2109295369166
  0
LINE
  8
0
  6
CONTINUOUS
 62
     7
 10
160.0
 20
103.2109295369166
 11
159.6073023843506
 21
100.0126641136282
  0
LINE
  8
0
  6
CONTINUOUS
 62
     7
 10
50.3926976156494
 20
100.0126641136282
 11
50.0
 21
103.2109295369166
  0
ARC
  8
0
  6
CONTINUOUS
 62
     7
 10
51.18673453696246
 20
100.1101595883523
 40
0.7999999999999999
 50
187.0
 51
259.5551483953222
  0
ARC
  8
0
  6
CONTINUOUS
 62
     7
 10
158.8132654630376
 20
100.1101595883523
 40
0.800000000000007
 50
280.4448516046778
 51
352.9999999999999
  0
LINE
  8
0
  6
CONTINUOUS
 62
     7
 10
109.3
 20
91.51092953691656
 11
100.7
 21
91.51092953691656
  0
LINE
  8
0
  6
CONTINUOUS
 62
     7
 10
102.8
 20
84.81092953691656
 11
102.8
 21
74.21092953691658
  0
LINE
  8
0
  6
CONTINUOUS
 62
     7
 10
107.2
 20
74.21092953691658
 11
107.2
 21
84.81092953691656
  0
ARC
  8
0
  6
CONTINUOUS
 62
     7
 10
107.49
 20
66.97092953691657
 40
0.1999999999999988
 50
270.0000000000001
 51
0.0
  0
ARC
  8
0
  6
CONTINUOUS
 62
     7
 10
102.51
 20
66.97092953691657
 40
0.1999999999999919
 50
180.0
 51
269.9999999999999
  0
LINE
  8
0
  6
CONTINUOUS
 62
     7
 10
102.1857359312881
 20
67.0951936056285
 11
102.31
 21
66.97092953691657
  0
LINE
  8
0
  6
CONTINUOUS
 62
     7
 10
102.01
 20
70.37092953691658
 11
102.01
 21
67.51945767434042
  0
ARC
  8
0
  6
CONTINUOUS
 62
     7
 10
102.61
 20
67.51945767434042
 40
0.6000000000000033
 50
180.0
 51
224.9999999999998
  0
LINE
  8
0
  6
CONTINUOUS
 62
     7
 10
107.69
 20
66.97092953691657
 11
107.8142640687119
 21
67.0951936056285
  0
LINE
  8
0
  6
CONTINUOUS
 62
     7
 10
107.99
 20
67.51945767434042
 11
107.99
 21
70.37092953691656
  0
ARC
  8
0
  6
CONTINUOUS
 62
     7
 10
107.39
 20
67.51945767434042
 40
0.599999999999991
 50
315.0000000000002
 51
0.0
  0
ARC
  8
0
  6
CONTINUOUS
 62
     7
 10
107.81
 20
71.50119251068234
 40
0.3999999999999936
 50
180.0
 51
181.3064111731893
  0
ARC
  8
0
  6
CONTINUOUS
 62
     7
 10
102.19
 20
71.50119251068234
 40
0.3999999999999976
 50
358.6935888268108
 51
0.0
  0
LINE
  8
0
  6
CONTINUOUS
 62
     7
 10
107.41
 20
71.50119251068234
 11
107.41
 21
74.01092953691656
  0
LINE
  8
0
  6
CONTINUOUS
 62
     7
 10
102.59
 20
74.01092953691656
 11
102.59
 21
71.50119251068234
  0
ARC
  8
0
  6
CONTINUOUS
 62
     7
 10
107.31
 20
74.01092953691656
 40
0.1000000000000029
 50
0.0
 51
90.0
  0
ARC
  8
0
  6
CONTINUOUS
 62
     7
 10
102.69
 20
74.01092953691656
 40
0.1000000000000029
 50
90.0
 51
180.0
  0
LINE
  8
0
  6
CONTINUOUS
 62
     7
 10
107.41
 20
70.37092953691658
 11
107.41
 21
70.43092953691657
  0
LINE
  8
0
  6
CONTINUOUS
 62
     7
 10
102.59
 20
70.43092953691657
 11
102.59
 21
70.37092953691656
  0
LINE
  8
0
  6
CONTINUOUS
 62
     7
 10
103.2
 20
74.21092953691658
 11
103.2
 21
74.11092953691657
  0
LINE
  8
0
  6
CONTINUOUS
 62
     7
 10
106.8
 20
74.11092953691657
 11
106.8
 21
74.21092953691658
  0
ARC
  8
0
  6
CONTINUOUS
 62
     7
 10
102.3899480128881
 20
71.49663267054024
 40
0.1999999999999969
 50
323.5912254322278
 51
358.6935888268108
  0
LINE
  8
0
  6
CONTINUOUS
 62
     7
 10
102.5509085946328
 20
71.37792424150346
 11
102.0390394182552
 21
70.68386434133042
  0
ARC
  8
0
  6
CONTINUOUS
 62
     7
 10
102.2
 20
70.56515591229365
 40
0.2000000000000021
 50
143.5912254322297
 51
180.0
  0
LINE
  8
0
  6
CONTINUOUS
 62
     7
 10
102.0
 20
70.56515591229365
 11
102.0
 21
70.43092953691657
  0
ARC
  8
0
  6
CONTINUOUS
 62
     7
 10
107.610051987112
 20
71.49663267054024
 40
0.199999999999995
 50
181.3064111731892
 51
216.4087745677721
  0
LINE
  8
0
  6
CONTINUOUS
 62
     7
 10
107.9609605817448
 20
70.68386434133042
 11
107.4490914053672
 21
71.37792424150346
  0
ARC
  8
0
  6
CONTINUOUS
 62
     7
 10
107.8
 20
70.56515591229365
 40
0.2000000000000057
 50
0.0
 51
36.40877456777031
  0
LINE
  8
0
  6
CONTINUOUS
 62
     7
 10
108.0
 20
70.43092953691657
 11
108.0
 21
70.56515591229365
  0
LINE
  8
0
  6
CONTINUOUS
 62
     7
 10
158.0
 20
103.6109295369166
 11
158.0
 21
103.7109295369166
  0
LINE
  8
0
  6
CONTINUOUS
 62
     7
 10
140.0
 20
103.7109295369166
 11
140.0
 21
103.6109295369166
  0
LINE
  8
0
  6
CONTINUOUS
 62
     7
 10
69.99999999999997
 20
103.6109295369166
 11
69.99999999999997
 21
103.7109295369166
  0
LINE
  8
0
  6
CONTINUOUS
 62
     7
 10
51.99999999999999
 20
103.7109295369166
 11
51.99999999999999
 21
103.6109295369166
  0
LINE
  8
0
  6
CONTINUOUS
 62
     7
 10
101.1956365661046
 20
91.51092953691656
 11
101.1991349287531
 21
91.11005688336674
  0
LINE
  8
0
  6
CONTINUOUS
 62
     7
 10
108.8008650712469
 20
91.11005688336674
 11
108.8043634338954
 21
91.51092953691656
  0
ARC
  8
0
  6
CONTINUOUS
 62
     7
 10
108.7008688789405
 20
91.11092953691657
 40
0.1000000000000029
 50
270.0
 51
359.4999999999995
  0
ARC
  8
0
  6
CONTINUOUS
 62
     7
 10
101.2991311210595
 20
91.11092953691657
 40
0.1000000000000086
 50
180.5000000000005
 51
270.0
  0
ARC
  8
0
  6
CONTINUOUS
 62
     7
 10
108.2957121698619
 20
90.91092953691658
 40
0.0999999999999948
 50
90.0
 51
179.4999999999964
  0
ARC
  8
0
  6
CONTINUOUS
 62
     7
 10
101.7042878301381
 20
90.91092953691658
 40
0.099999999999989
 50
0.500000000003638
 51
90.0
  0
LINE
  8
0
  6
CONTINUOUS
 62
     7
 10
101.8042840224445
 20
90.91180219046642
 11
101.8191349287531
 21
89.21005688336673
  0
LINE
  8
0
  6
CONTINUOUS
 62
     7
 10
108.1808650712469
 20
89.21005688336673
 11
108.1957159775555
 21
90.91180219046642
  0
ARC
  8
0
  6
CONTINUOUS
 62
     7
 10
101.9191311210595
 20
89.21092953691657
 40
0.0999999999999948
 50
180.4999999999973
 51
270.0
  0
ARC
  8
0
  6
CONTINUOUS
 62
     7
 10
108.0808688789405
 20
89.21092953691657
 40
0.1000000000000029
 50
270.0
 51
359.5000000000027
  0
ARC
  8
0
  6
CONTINUOUS
 62
     7
 10
102.1
 20
87.31092953691657
 40
0.2000000000000057
 50
180.0
 51
270.0
  0
ARC
  8
0
  6
CONTINUOUS
 62
     7
 10
107.9
 20
87.31092953691657
 40
0.2000000000000057
 50
270.0
 51
0.0
  0
LINE
  8
0
  6
CONTINUOUS
 62
     7
 10
101.6
 20
89.11092953691657
 11
101.6
 21
87.51092953691656
  0
ARC
  8
0
  6
CONTINUOUS
 62
     7
 10
101.8
 20
87.51092953691656
 40
0.1999999999999919
 50
180.0
 51
270.0000000000004
  0
LINE
  8
0
  6
CONTINUOUS
 62
     7
 10
108.4
 20
87.51092953691658
 11
108.4
 21
89.11092953691657
  0
ARC
  8
0
  6
CONTINUOUS
 62
     7
 10
108.2
 20
87.51092953691656
 40
0.1999999999999919
 50
269.9999999999996
 51
0.0
  0
POLYLINE
  8
0
  6
CONTINUOUS
 62
     7
 66
     1
  0
VERTEX
  8
0
  6
CONTINUOUS
 62
     7
 10
107.3771574963173
 20
86.87151355962637
  0
VERTEX
  8
0
  6
CONTINUOUS
 62
     7
 10
107.5348444121258
 20
86.95372124524754
  0
VERTEX
  8
0
  6
CONTINUOUS
 62
     7
 10
107.6149094977696
 20
87.01890094067892
  0
VERTEX
  8
0
  6
CONTINUOUS
 62
     7
 10
107.5874227308728
 20
87.07351515365222
  0
SEQEND
  8
0
  6
CONTINUOUS
 62
     7
  0
LINE
  8
0
  6
CONTINUOUS
 62
     7
 10
107.5874217834638
 20
87.07351564820948
 11
107.51572407205
 21
87.11092953691657
  0
POLYLINE
  8
0
  6
CONTINUOUS
 62
     7
 66
     1
  0
VERTEX
  8
0
  6
CONTINUOUS
 62
     7
 10
107.3775489273087
 20
86.5088775112582
  0
VERTEX
  8
0
  6
CONTINUOUS
 62
     7
 10
107.5351210759603
 20
86.59106710882453
  0
VERTEX
  8
0
  6
CONTINUOUS
 62
     7
 10
107.6149135024498
 20
86.6561997753133
  0
VERTEX
  8
0
  6
CONTINUOUS
 62
     7
 10
107.5872703789234
 20
86.71075851809745
  0
SEQEND
  8
0
  6
CONTINUOUS
 62
     7
  0
LINE
  8
0
  6
CONTINUOUS
 62
     7
 10
107.5872694315164
 20
86.71075901250745
 11
107.3800015035923
 21
86.81883193234974
  0
LINE
  8
0
  6
CONTINUOUS
 62
     7
 10
102.6225957904241
 20
86.63876163934256
 11
102.4088103305486
 21
86.52701691568524
  0
POLYLINE
  8
0
  6
CONTINUOUS
 62
     7
 66
     1
  0
VERTEX
  8
0
  6
CONTINUOUS
 62
     7
 10
102.4088103305486
 20
86.52701691568524
  0
VERTEX
  8
0
  6
CONTINUOUS
 62
     7
 10
102.4304630730938
 20
86.42760666381675
  0
VERTEX
  8
0
  6
CONTINUOUS
 62
     7
 10
102.6223816326856
 20
86.32749412422154
  0
SEQEND
  8
0
  6
CONTINUOUS
 62
     7
  0
LINE
  8
0
  6
CONTINUOUS
 62
     7
 10
102.6229143560664
 20
87.0017781982457
 11
102.3951422741956
 21
86.81445006067081
  0
LINE
  8
0
  6
CONTINUOUS
 62
     7
 10
102.4125143030953
 20
86.79979722696403
 11
102.6199984543006
 21
86.69157370085438
  0
LINE
  8
0
  6
CONTINUOUS
 62
     7
 10
102.5115688832087
 20
87.11092953691657
 11
102.6199984193337
 21
87.05441792670872
  0
LINE
  8
0
  6
CONTINUOUS
 62
     7
 10
102.62
 20
86.33003393939484
 11
102.62
 21
85.01092953691656
  0
LINE
  8
0
  6
CONTINUOUS
 62
     7
 10
102.62
 20
86.69289115395749
 11
102.62
 21
86.63611075207024
  0
LINE
  8
0
  6
CONTINUOUS
 62
     7
 10
102.62
 20
87.05574832869486
 11
102.62
 21
86.99896796663288
  0
LINE
  8
0
  6
CONTINUOUS
 62
     7
 10
107.38
 20
86.81753939892108
 11
107.38
 21
86.87431964356223
  0
LINE
  8
0
  6
CONTINUOUS
 62
     7
 10
107.38
 20
86.30663240903881
 11
107.38
 21
86.51146258624946
  0
LINE
  8
0
  6
CONTINUOUS
 62
     7
 10
107.38
 20
85.01092953691656
 11
107.38
 21
86.30663240903881
  0
ARC
  8
0
  6
CONTINUOUS
 62
     7
 10
107.28
 20
85.01092953691656
 40
0.099999999999989
 50
270.0
 51
0.0
  0
ARC
  8
0
  6
CONTINUOUS
 62
     7
 10
102.72
 20
85.01092953691656
 40
0.1000000000000029
 50
180.0
 51
270.0
  0
LINE
  8
0
  6
CONTINUOUS
 62
     7
 10
106.8
 20
84.81092953691657
 11
106.8
 21
84.91092953691657
  0
LINE
  8
0
  6
CONTINUOUS
 62
     7
 10
103.2
 20
84.91092953691657
 11
103.2
 21
84.81092953691657
  0
POLYLINE
  8
0
  6
CONTINUOUS
 62
     7
 66
     1
  0
VERTEX
  8
0
  6
CONTINUOUS
 62
     7
 10
150.4301381579236
 20
94.01116949798879
  0
VERTEX
  8
0
  6
CONTINUOUS
 62
     7
 10
150.4429103744458
 20
94.01951975570095
  0
VERTEX
  8
0
  6
CONTINUOUS
 62
     7
 10
150.464377929555
 20
94.03359660614478
  0
VERTEX
  8
0
  6
CONTINUOUS
 62
     7
 10
150.4697610246471
 20
94.03713516886542
  0
VERTEX
  8
0
  6
CONTINUOUS
 62
     7
 10
150.4711077702616
 20
94.03802101892742
  0
VERTEX
  8
0
  6
CONTINUOUS
 62
     7
 10
150.471444516754
 20
94.0382425570293
  0
VERTEX
  8
0
  6
CONTINUOUS
 62
     7
 10
150.4715287071224
 20
94.03829794627892
  0
VERTEX
  8
0
  6
CONTINUOUS
 62
     7
 10
150.4715497549485
 20
94.03831179388658
  0
VERTEX
  8
0
  6
CONTINUOUS
 62
     7
 10
150.4715550169196
 20
94.03831525580695
  0
VERTEX
  8
0
  6
CONTINUOUS
 62
     7
 10
150.4715563486836
 20
94.03831613914049
  0
VERTEX
  8
0
  6
CONTINUOUS
 62
     7
 10
150.4715567646883
 20
94.03831645027569
  0
VERTEX
  8
0
  6
CONTINUOUS
 62
     7
 10
150.4931570261498
 20
94.05559127548064
  0
VERTEX
  8
0
  6
CONTINUOUS
 62
     7
 10
150.5129598739975
 20
94.07388724652989
  0
VERTEX
  8
0
  6
CONTINUOUS
 62
     7
 10
150.5306814024587
 20
94.0931862602074
  0
VERTEX
  8
0
  6
CONTINUOUS
 62
     7
 10
150.5460205043913
 20
94.11346097242027
  0
VERTEX
  8
0
  6
CONTINUOUS
 62
     7
 10
150.5562073835432
 20
94.1300515215985
  0
VERTEX
  8
0
  6
CONTINUOUS
 62
     7
 10
150.564603496398
 20
94.1471924091436
  0
VERTEX
  8
0
  6
CONTINUOUS
 62
     7
 10
150.5710829352667
 20
94.16484128920338
  0
VERTEX
  8
0
  6
CONTINUOUS
 62
     7
 10
150.5755191076588
 20
94.18294909191519
  0
VERTEX
  8
0
  6
CONTINUOUS
 62
     7
 10
150.5777905861951
 20
94.20156207660938
  0
VERTEX
  8
0
  6
CONTINUOUS
 62
     7
 10
150.5777375750852
 20
94.22051934709565
  0
VERTEX
  8
0
  6
CONTINUOUS
 62
     7
 10
150.5752438570333
 20
94.23975016214771
  0
VERTEX
  8
0
  6
CONTINUOUS
 62
     7
 10
150.5702202977234
 20
94.25917616649319
  0
VERTEX
  8
0
  6
CONTINUOUS
 62
     7
 10
150.5625858611879
 20
94.27871106061876
  0
VERTEX
  8
0
  6
CONTINUOUS
 62
     7
 10
150.5522658102962
 20
94.2982602649313
  0
VERTEX
  8
0
  6
CONTINUOUS
 62
     7
 10
150.5391937222166
 20
94.31772141387805
  0
VERTEX
  8
0
  6
CONTINUOUS
 62
     7
 10
150.5254700053862
 20
94.3346006861798
  0
VERTEX
  8
0
  6
CONTINUOUS
 62
     7
 10
150.5096190704887
 20
94.35127469045163
  0
VERTEX
  8
0
  6
CONTINUOUS
 62
     7
 10
150.4916615532653
 20
94.36767633543091
  0
VERTEX
  8
0
  6
CONTINUOUS
 62
     7
 10
150.4720779465739
 20
94.38339294854872
  0
SEQEND
  8
0
  6
CONTINUOUS
 62
     7
  0
LINE
  8
0
  6
CONTINUOUS
 62
     7
 10
150.4720779465739
 20
94.38339294854872
 11
150.2330931259727
 21
94.53793690212737
  0
LINE
  8
0
  6
CONTINUOUS
 62
     7
 10
150.4305632996547
 20
94.41102064551391
 11
150.5781907173106
 21
94.61092984292092
  0
POLYLINE
  8
0
  6
CONTINUOUS
 62
     7
 66
     1
  0
VERTEX
  8
0
  6
CONTINUOUS
 62
     7
 10
147.5699822630576
 20
93.61074516799238
  0
VERTEX
  8
0
  6
CONTINUOUS
 62
     7
 10
147.5566937669698
 20
93.60206745041376
  0
VERTEX
  8
0
  6
CONTINUOUS
 62
     7
 10
147.5354683321572
 20
93.58817429372998
  0
VERTEX
  8
0
  6
CONTINUOUS
 62
     7
 10
147.5301537020372
 20
93.58468908454302
  0
VERTEX
  8
0
  6
CONTINUOUS
 62
     7
 10
147.5288245473353
 20
93.58381703724528
  0
VERTEX
  8
0
  6
CONTINUOUS
 62
     7
 10
147.5284922278979
 20
93.5835989788583
  0
VERTEX
  8
0
  6
CONTINUOUS
 62
     7
 10
147.5284091461208
 20
93.5835444613514
  0
VERTEX
  8
0
  6
CONTINUOUS
 62
     7
 10
147.5283883755568
 20
93.58353083179277
  0
VERTEX
  8
0
  6
CONTINUOUS
 62
     7
 10
147.5283831829083
 20
93.58352742439176
  0
VERTEX
  8
0
  6
CONTINUOUS
 62
     7
 10
147.5283805865829
 20
93.58352572068954
  0
VERTEX
  8
0
  6
CONTINUOUS
 62
     7
 10
147.5283794712287
 20
93.58352497226997
  0
VERTEX
  8
0
  6
CONTINUOUS
 62
     7
 10
147.5283790705296
 20
93.58352467312952
  0
VERTEX
  8
0
  6
CONTINUOUS
 62
     7
 10
147.5040484411658
 20
93.56389461971281
  0
VERTEX
  8
0
  6
CONTINUOUS
 62
     7
 10
147.4825598368039
 20
93.54338589391178
  0
VERTEX
  8
0
  6
CONTINUOUS
 62
     7
 10
147.4640764640071
 20
93.52203343725091
  0
VERTEX
  8
0
  6
CONTINUOUS
 62
     7
 10
147.4487803114724
 20
93.49989138943252
  0
VERTEX
  8
0
  6
CONTINUOUS
 62
     7
 10
147.4368475727011
 20
93.47705113957772
  0
VERTEX
  8
0
  6
CONTINUOUS
 62
     7
 10
147.4284126264795
 20
93.45366324259075
  0
VERTEX
  8
0
  6
CONTINUOUS
 62
     7
 10
147.4243686797974
 20
93.43529808156698
  0
VERTEX
  8
0
  6
CONTINUOUS
 62
     7
 10
147.4225621460922
 20
93.4168181051416
  0
VERTEX
  8
0
  6
CONTINUOUS
 62
     7
 10
147.4230233269574
 20
93.39833864493477
  0
VERTEX
  8
0
  6
CONTINUOUS
 62
     7
 10
147.4257482239653
 20
93.37998934189886
  0
VERTEX
  8
0
  6
CONTINUOUS
 62
     7
 10
147.4307243587563
 20
93.36191486508241
  0
VERTEX
  8
0
  6
CONTINUOUS
 62
     7
 10
147.4379302599412
 20
93.34427480917444
  0
VERTEX
  8
0
  6
CONTINUOUS
 62
     7
 10
147.4473030456731
 20
93.32722566712263
  0
VERTEX
  8
0
  6
CONTINUOUS
 62
     7
 10
147.4587335749272
 20
93.31091900067537
  0
VERTEX
  8
0
  6
CONTINUOUS
 62
     7
 10
147.4703440186519
 20
93.2973625110233
  0
SEQEND
  8
0
  6
CONTINUOUS
 62
     7
  0
LINE
  8
0
  6
CONTINUOUS
 62
     7
 10
147.4703440186519
 20
93.2973625110233
 11
147.6713168899655
 21
93.16161753524767
  0
POLYLINE
  8
0
  6
CONTINUOUS
 62
     7
 66
     1
  0
VERTEX
  8
0
  6
CONTINUOUS
 62
     7
 10
147.5698498747607
 20
94.41086350076492
  0
VERTEX
  8
0
  6
CONTINUOUS
 62
     7
 10
147.5501900227472
 20
94.398023618633
  0
VERTEX
  8
0
  6
CONTINUOUS
 62
     7
 10
147.5390991100327
 20
94.39076077834291
  0
VERTEX
  8
0
  6
CONTINUOUS
 62
     7
 10
147.5335475450191
 20
94.38711981619373
  0
VERTEX
  8
0
  6
CONTINUOUS
 62
     7
 10
147.5307703032464
 20
94.38529694961811
  0
VERTEX
  8
0
  6
CONTINUOUS
 62
     7
 10
147.5304230810549
 20
94.3850689794758
  0
VERTEX
  8
0
  6
CONTINUOUS
 62
     7
 10
147.5303362732001
 20
94.38501198305758
  0
VERTEX
  8
0
  6
CONTINUOUS
 62
     7
 10
147.5302928689271
 20
94.38498348426606
  0
VERTEX
  8
0
  6
CONTINUOUS
 62
     7
 10
147.5302711667043
 20
94.38496923472471
  0
VERTEX
  8
0
  6
CONTINUOUS
 62
     7
 10
147.5302684539224
 20
94.38496745352522
  0
VERTEX
  8
0
  6
CONTINUOUS
 62
     7
 10
147.5302672905132
 20
94.3849666724112
  0
VERTEX
  8
0
  6
CONTINUOUS
 62
     7
 10
147.5302668580968
 20
94.38496635163145
  0
VERTEX
  8
0
  6
CONTINUOUS
 62
     7
 10
147.5074424004215
 20
94.3668102457065
  0
VERTEX
  8
0
  6
CONTINUOUS
 62
     7
 10
147.4867159007326
 20
94.34764689650086
  0
VERTEX
  8
0
  6
CONTINUOUS
 62
     7
 10
147.4683674829462
 20
94.32750754083386
  0
VERTEX
  8
0
  6
CONTINUOUS
 62
     7
 10
147.4526907016793
 20
94.30643237958436
  0
VERTEX
  8
0
  6
CONTINUOUS
 62
     7
 10
147.4424319250301
 20
94.28924945134293
  0
VERTEX
  8
0
  6
CONTINUOUS
 62
     7
 10
147.4341200500736
 20
94.27155780152559
  0
VERTEX
  8
0
  6
CONTINUOUS
 62
     7
 10
147.4278684916457
 20
94.25340707636849
  0
VERTEX
  8
0
  6
CONTINUOUS
 62
     7
 10
147.423790786945
 20
94.23485285250865
  0
VERTEX
  8
0
  6
CONTINUOUS
 62
     7
 10
147.4220099056514
 20
94.21624826062441
  0
VERTEX
  8
0
  6
CONTINUOUS
 62
     7
 10
147.4225531648575
 20
94.19737684662765
  0
VERTEX
  8
0
  6
CONTINUOUS
 62
     7
 10
147.4255056483342
 20
94.17830942504983
  0
VERTEX
  8
0
  6
CONTINUOUS
 62
     7
 10
147.4309308568866
 20
94.1591231350374
  0
VERTEX
  8
0
  6
CONTINUOUS
 62
     7
 10
147.4388860503594
 20
94.13990167099875
  0
VERTEX
  8
0
  6
CONTINUOUS
 62
     7
 10
147.4494224059751
 20
94.12073551658061
  0
VERTEX
  8
0
  6
CONTINUOUS
 62
     7
 10
147.4625813316289
 20
94.10172024960654
  0
VERTEX
  8
0
  6
CONTINUOUS
 62
     7
 10
147.476252870044
 20
94.08527465117994
  0
VERTEX
  8
0
  6
CONTINUOUS
 62
     7
 10
147.491917717079
 20
94.06906943230932
  0
VERTEX
  8
0
  6
CONTINUOUS
 62
     7
 10
147.5095448958391
 20
94.05316575471869
  0
VERTEX
  8
0
  6
CONTINUOUS
 62
     7
 10
147.5273004265181
 20
94.03897937600901
  0
SEQEND
  8
0
  6
CONTINUOUS
 62
     7
  0
LINE
  8
0
  6
CONTINUOUS
 62
     7
 10
147.5273004265181
 20
94.03897937600901
 11
147.7643221246009
 21
93.8855624898702
  0
POLYLINE
  8
0
  6
CONTINUOUS
 62
     7
 66
     1
  0
VERTEX
  8
0
  6
CONTINUOUS
 62
     7
 10
147.569848816496
 20
94.01085773504917
  0
VERTEX
  8
0
  6
CONTINUOUS
 62
     7
 10
147.5588319340219
 20
94.00366169795404
  0
VERTEX
  8
0
  6
CONTINUOUS
 62
     7
 10
147.5373208320211
 20
93.98957154902187
  0
VERTEX
  8
0
  6
CONTINUOUS
 62
     7
 10
147.5319269715797
 20
93.98602982426922
  0
VERTEX
  8
0
  6
CONTINUOUS
 62
     7
 10
147.5305775400155
 20
93.98514319386108
  0
VERTEX
  8
0
  6
CONTINUOUS
 62
     7
 10
147.5302401223369
 20
93.98492146130779
  0
VERTEX
  8
0
  6
CONTINUOUS
 62
     7
 10
147.5301557641903
 20
93.98486602348501
  0
VERTEX
  8
0
  6
CONTINUOUS
 62
     7
 10
147.5301346744208
 20
93.98485216373655
  0
VERTEX
  8
0
  6
CONTINUOUS
 62
     7
 10
147.5301294019639
 20
93.98484869878112
  0
VERTEX
  8
0
  6
CONTINUOUS
 62
     7
 10
147.5301267657333
 20
93.98484696630068
  0
VERTEX
  8
0
  6
CONTINUOUS
 62
     7
 10
147.5301256276255
 20
93.984846201765
  0
VERTEX
  8
0
  6
CONTINUOUS
 62
     7
 10
147.5301252084777
 20
93.98484588996173
  0
VERTEX
  8
0
  6
CONTINUOUS
 62
     7
 10
147.5083593324946
 20
93.96753953809238
  0
VERTEX
  8
0
  6
CONTINUOUS
 62
     7
 10
147.4883880176771
 20
93.94922076217051
  0
VERTEX
  8
0
  6
CONTINUOUS
 62
     7
 10
147.4704788032666
 20
93.92990766520616
  0
VERTEX
  8
0
  6
CONTINUOUS
 62
     7
 10
147.4549180701731
 20
93.90962759088346
  0
VERTEX
  8
0
  6
CONTINUOUS
 62
     7
 10
147.4445369507486
 20
93.89303894636001
  0
VERTEX
  8
0
  6
CONTINUOUS
 62
     7
 10
147.4359375952081
 20
93.87590534628416
  0
VERTEX
  8
0
  6
CONTINUOUS
 62
     7
 10
147.4292549625229
 20
93.85826913565786
  0
VERTEX
  8
0
  6
CONTINUOUS
 62
     7
 10
147.4246257164391
 20
93.84017938339628
  0
VERTEX
  8
0
  6
CONTINUOUS
 62
     7
 10
147.4221799679466
 20
93.82158986058354
  0
VERTEX
  8
0
  6
CONTINUOUS
 62
     7
 10
147.4220757300663
 20
93.80266148578691
  0
VERTEX
  8
0
  6
CONTINUOUS
 62
     7
 10
147.4244190520711
 20
93.7834650000886
  0
VERTEX
  8
0
  6
CONTINUOUS
 62
     7
 10
147.4292880154446
 20
93.76407875861439
  0
VERTEX
  8
0
  6
CONTINUOUS
 62
     7
 10
147.43675179319
 20
93.7445890607284
  0
VERTEX
  8
0
  6
CONTINUOUS
 62
     7
 10
147.4468724839855
 20
93.72509048587202
  0
VERTEX
  8
0
  6
CONTINUOUS
 62
     7
 10
147.4597031384187
 20
93.70568539959473
  0
VERTEX
  8
0
  6
CONTINUOUS
 62
     7
 10
147.4731711051439
 20
93.6888596394822
  0
VERTEX
  8
0
  6
CONTINUOUS
 62
     7
 10
147.4887269598
 20
93.67224330757458
  0
VERTEX
  8
0
  6
CONTINUOUS
 62
     7
 10
147.5063598239673
 20
93.65590349505526
  0
VERTEX
  8
0
  6
CONTINUOUS
 62
     7
 10
147.5255648032365
 20
93.64028389051255
  0
SEQEND
  8
0
  6
CONTINUOUS
 62
     7
  0
LINE
  8
0
  6
CONTINUOUS
 62
     7
 10
147.5255648032365
 20
93.64028389051255
 11
147.7635721495105
 21
93.4860154979594
  0
POLYLINE
  8
0
  6
CONTINUOUS
 62
     7
 66
     1
  0
VERTEX
  8
0
  6
CONTINUOUS
 62
     7
 10
150.4009983505685
 20
93.20951237894981
  0
VERTEX
  8
0
  6
CONTINUOUS
 62
     7
 10
150.4361778364362
 20
93.23290551144227
  0
VERTEX
  8
0
  6
CONTINUOUS
 62
     7
 10
150.4888511979564
 20
93.2680917709078
  0
VERTEX
  8
0
  6
CONTINUOUS
 62
     7
 10
150.5148865877037
 20
93.28557046848236
  0
VERTEX
  8
0
  6
CONTINUOUS
 62
     7
 10
150.5213624543228
 20
93.28992822285952
  0
VERTEX
  8
0
  6
CONTINUOUS
 62
     7
 10
150.5229793192682
 20
93.29101691645276
  0
VERTEX
  8
0
  6
CONTINUOUS
 62
     7
 10
150.5237874348952
 20
93.29156115149924
  0
VERTEX
  8
0
  6
CONTINUOUS
 62
     7
 10
150.5241914133708
 20
93.29183324108493
  0
VERTEX
  8
0
  6
CONTINUOUS
 62
     7
 10
150.5243933827584
 20
93.2919692788934
  0
VERTEX
  8
0
  6
CONTINUOUS
 62
     7
 10
150.5244943624876
 20
93.29203729605153
  0
VERTEX
  8
0
  6
CONTINUOUS
 62
     7
 10
150.5244961296034
 20
93.29203848634144
  0
VERTEX
  8
0
  6
CONTINUOUS
 62
     7
 10
150.5244965322684
 20
93.29203884363685
  0
VERTEX
  8
0
  6
CONTINUOUS
 62
     7
 10
150.5357926090929
 20
93.30422462176298
  0
VERTEX
  8
0
  6
CONTINUOUS
 62
     7
 10
150.5458690609426
 20
93.31705202759389
  0
VERTEX
  8
0
  6
CONTINUOUS
 62
     7
 10
150.5546502861536
 20
93.33043036359808
  0
VERTEX
  8
0
  6
CONTINUOUS
 62
     7
 10
150.5620697400588
 20
93.34427480917445
  0
VERTEX
  8
0
  6
CONTINUOUS
 62
     7
 10
150.5692756412437
 20
93.36191486508243
  0
VERTEX
  8
0
  6
CONTINUOUS
 62
     7
 10
150.5742517760348
 20
93.37998934189886
  0
VERTEX
  8
0
  6
CONTINUOUS
 62
     7
 10
150.5769766730426
 20
93.39833864493477
  0
VERTEX
  8
0
  6
CONTINUOUS
 62
     7
 10
150.5774378539078
 20
93.4168181051416
  0
VERTEX
  8
0
  6
CONTINUOUS
 62
     7
 10
150.5756313202026
 20
93.43529808156698
  0
VERTEX
  8
0
  6
CONTINUOUS
 62
     7
 10
150.5715873735205
 20
93.45366324259074
  0
VERTEX
  8
0
  6
CONTINUOUS
 62
     7
 10
150.5638678101521
 20
93.47540756497202
  0
VERTEX
  8
0
  6
CONTINUOUS
 62
     7
 10
150.5531212769654
 20
93.49668938354374
  0
VERTEX
  8
0
  6
CONTINUOUS
 62
     7
 10
150.5394534016926
 20
93.51738374038283
  0
VERTEX
  8
0
  6
CONTINUOUS
 62
     7
 10
150.5229994587414
 20
93.53740895144567
  0
VERTEX
  8
0
  6
CONTINUOUS
 62
     7
 10
150.5039092501439
 20
93.55671723336722
  0
VERTEX
  8
0
  6
CONTINUOUS
 62
     7
 10
150.4906992214259
 20
93.56840572353093
  0
VERTEX
  8
0
  6
CONTINUOUS
 62
     7
 10
150.477152140528
 20
93.57932655858035
  0
SEQEND
  8
0
  6
CONTINUOUS
 62
     7
  0
LINE
  8
0
  6
CONTINUOUS
 62
     7
 10
150.477152140528
 20
93.57932655858035
 11
150.2348638818355
 21
93.73680317160452
  0
LINE
  8
0
  6
CONTINUOUS
 62
     7
 10
147.4218092826895
 20
94.61092984292092
 11
147.5281167042658
 21
94.43839432435489
  0
LINE
  8
0
  6
CONTINUOUS
 62
     7
 10
147.5281167042658
 20
94.43839432435489
 11
147.7662845686386
 21
94.28425121226735
  0
POLYLINE
  8
0
  6
CONTINUOUS
 62
     7
 66
     1
  0
VERTEX
  8
0
  6
CONTINUOUS
 62
     7
 10
150.4296491070679
 20
93.61084728354423
  0
VERTEX
  8
0
  6
CONTINUOUS
 62
     7
 10
150.4433852287173
 20
93.6198353500945
  0
VERTEX
  8
0
  6
CONTINUOUS
 62
     7
 10
150.4648113328398
 20
93.63389940994732
  0
VERTEX
  8
0
  6
CONTINUOUS
 62
     7
 10
150.470183772124
 20
93.63743480203095
  0
VERTEX
  8
0
  6
CONTINUOUS
 62
     7
 10
150.4715278378654
 20
93.63831986112189
  0
VERTEX
  8
0
  6
CONTINUOUS
 62
     7
 10
150.4718639134331
 20
93.6385412015865
  0
VERTEX
  8
0
  6
CONTINUOUS
 62
     7
 10
150.4719479360112
 20
93.6385965414334
  0
VERTEX
  8
0
  6
CONTINUOUS
 62
     7
 10
150.4719689418859
 20
93.63861037669078
  0
VERTEX
  8
0
  6
CONTINUOUS
 62
     7
 10
150.471974193369
 20
93.63861383552361
  0
VERTEX
  8
0
  6
CONTINUOUS
 62
     7
 10
150.4719755221572
 20
93.63861471799262
  0
VERTEX
  8
0
  6
CONTINUOUS
 62
     7
 10
150.4719759356496
 20
93.63861502844858
  0
VERTEX
  8
0
  6
CONTINUOUS
 62
     7
 10
150.4934406649166
 20
93.65585398668156
  0
VERTEX
  8
0
  6
CONTINUOUS
 62
     7
 10
150.5131185180247
 20
93.67411553790406
  0
VERTEX
  8
0
  6
CONTINUOUS
 62
     7
 10
150.5307437804106
 20
93.69338157890034
  0
VERTEX
  8
0
  6
CONTINUOUS
 62
     7
 10
150.5460324767921
 20
93.71362476557793
  0
VERTEX
  8
0
  6
CONTINUOUS
 62
     7
 10
150.5562101569553
 20
93.7301915599102
  0
VERTEX
  8
0
  6
CONTINUOUS
 62
     7
 10
150.5646170259295
 20
93.747309586001
  0
VERTEX
  8
0
  6
CONTINUOUS
 62
     7
 10
150.5711201187004
 20
93.76493649799845
  0
VERTEX
  8
0
  6
CONTINUOUS
 62
     7
 10
150.5755850093415
 20
93.78302322604024
  0
VERTEX
  8
0
  6
CONTINUOUS
 62
     7
 10
150.5778817643412
 20
93.80161592195338
  0
VERTEX
  8
0
  6
CONTINUOUS
 62
     7
 10
150.5778408828378
 20
93.82055380681277
  0
VERTEX
  8
0
  6
CONTINUOUS
 62
     7
 10
150.5753360695918
 20
93.83976613939252
  0
VERTEX
  8
0
  6
CONTINUOUS
 62
     7
 10
150.5702775140376
 20
93.85917456442039
  0
VERTEX
  8
0
  6
CONTINUOUS
 62
     7
 10
150.5625968761071
 20
93.87869278238301
  0
VERTEX
  8
0
  6
CONTINUOUS
 62
     7
 10
150.5522341563973
 20
93.8982262136872
  0
VERTEX
  8
0
  6
CONTINUOUS
 62
     7
 10
150.5391388622411
 20
93.91767249278003
  0
VERTEX
  8
0
  6
CONTINUOUS
 62
     7
 10
150.5254231376811
 20
93.93453949482844
  0
VERTEX
  8
0
  6
CONTINUOUS
 62
     7
 10
150.5096067840252
 20
93.95120192032442
  0
VERTEX
  8
0
  6
CONTINUOUS
 62
     7
 10
150.491703205194
 20
93.96759267800526
  0
VERTEX
  8
0
  6
CONTINUOUS
 62
     7
 10
150.4721838046107
 20
93.98329916862798
  0
SEQEND
  8
0
  6
CONTINUOUS
 62
     7
  0
LINE
  8
0
  6
CONTINUOUS
 62
     7
 10
150.4721838046107
 20
93.98329916862798
 11
150.2333747190348
 21
94.13780918036777
  0
LINE
  8
0
  6
CONTINUOUS
 62
     7
 10
147.6215064
 20
92.93947601030109
 11
147.6215064
 21
92.41092953691658
  0
LINE
  8
0
  6
CONTINUOUS
 62
     7
 10
147.6215064
 20
93.19458772760352
 11
147.6215064
 21
93.07599012122803
  0
LINE
  8
0
  6
CONTINUOUS
 62
     7
 10
147.6215064
 20
93.57733768453174
 11
147.6215064
 21
93.56083102922602
  0
LINE
  8
0
  6
CONTINUOUS
 62
     7
 10
147.6215064
 20
93.97735983304757
 11
147.6215064
 21
93.96085657708319
  0
LINE
  8
0
  6
CONTINUOUS
 62
     7
 10
147.6215064
 20
94.37728951315351
 11
147.6215064
 21
94.36081114489203
  0
LINE
  8
0
  6
CONTINUOUS
 62
     7
 10
150.3784936
 20
94.44461455621507
 11
150.3784936
 21
94.46098789470307
  0
LINE
  8
0
  6
CONTINUOUS
 62
     7
 10
150.3784936
 20
94.04464214401004
 11
150.3784936
 21
94.0610297658093
  0
LINE
  8
0
  6
CONTINUOUS
 62
     7
 10
150.3784936
 20
93.64421106219731
 11
150.3784936
 21
93.66098398864226
  0
LINE
  8
0
  6
CONTINUOUS
 62
     7
 10
150.3784936
 20
93.23201080476974
 11
150.3784936
 21
93.26100492099613
  0
LINE
  8
0
  6
CONTINUOUS
 62
     7
 10
150.3784936
 20
92.41092953691658
 11
150.3784936
 21
92.95139322638434
  0
POLYLINE
  8
0
  6
CONTINUOUS
 62
     7
 66
     1
  0
VERTEX
  8
0
  6
CONTINUOUS
 62
     7
 10
150.3786009480491
 20
92.93916515106888
  0
VERTEX
  8
0
  6
CONTINUOUS
 62
     7
 10
150.3844301471785
 20
92.94478812141801
  0
VERTEX
  8
0
  6
CONTINUOUS
 62
     7
 10
150.3996218294198
 20
92.96075104518992
  0
VERTEX
  8
0
  6
CONTINUOUS
 62
     7
 10
150.4135302850044
 20
92.97760793738468
  0
VERTEX
  8
0
  6
CONTINUOUS
 62
     7
 10
150.4256758092141
 20
92.99505566734278
  0
VERTEX
  8
0
  6
CONTINUOUS
 62
     7
 10
150.4360465744415
 20
93.01339453599539
  0
VERTEX
  8
0
  6
CONTINUOUS
 62
     7
 10
150.444359380222
 20
93.03261554476566
  0
VERTEX
  8
0
  6
CONTINUOUS
 62
     7
 10
150.4503135481178
 20
93.05269575947744
  0
VERTEX
  8
0
  6
CONTINUOUS
 62
     7
 10
150.4530602479577
 20
93.06845701368768
  0
VERTEX
  8
0
  6
CONTINUOUS
 62
     7
 10
150.4541272422364
 20
93.08466602180702
  0
VERTEX
  8
0
  6
CONTINUOUS
 62
     7
 10
150.453368709399
 20
93.10129287419103
  0
VERTEX
  8
0
  6
CONTINUOUS
 62
     7
 10
150.4506494019027
 20
93.11830071680089
  0
VERTEX
  8
0
  6
CONTINUOUS
 62
     7
 10
150.4458371845303
 20
93.1356452110458
  0
VERTEX
  8
0
  6
CONTINUOUS
 62
     7
 10
150.438800736922
 20
93.15327401368556
  0
VERTEX
  8
0
  6
CONTINUOUS
 62
     7
 10
150.429409904062
 20
93.17112616235593
  0
VERTEX
  8
0
  6
CONTINUOUS
 62
     7
 10
150.4175360880472
 20
93.1891315728033
  0
VERTEX
  8
0
  6
CONTINUOUS
 62
     7
 10
150.4030642055442
 20
93.207217229214
  0
VERTEX
  8
0
  6
CONTINUOUS
 62
     7
 10
150.3859035443957
 20
93.22531092828476
  0
VERTEX
  8
0
  6
CONTINUOUS
 62
     7
 10
150.365971585449
 20
93.2433328803962
  0
VERTEX
  8
0
  6
CONTINUOUS
 62
     7
 10
150.3431769098638
 20
93.26119335424902
  0
SEQEND
  8
0
  6
CONTINUOUS
 62
     7
  0
POLYLINE
  8
0
  6
CONTINUOUS
 62
     7
 66
     1
  0
VERTEX
  8
0
  6
CONTINUOUS
 62
     7
 10
147.5988050779892
 20
93.20962540251752
  0
VERTEX
  8
0
  6
CONTINUOUS
 62
     7
 10
147.5466968049705
 20
93.10140956639269
  0
VERTEX
  8
0
  6
CONTINUOUS
 62
     7
 10
147.570464376911
 20
93.00262527227186
  0
VERTEX
  8
0
  6
CONTINUOUS
 62
     7
 10
147.6287184990524
 20
92.93260899604408
  0
SEQEND
  8
0
  6
CONTINUOUS
 62
     7
  0
LINE
  8
0
  6
CONTINUOUS
 62
     7
 10
153.0018507338213
 20
94.61092953691657
 11
153.4820282513461
 21
96.83304122464043
  0
LINE
  8
0
  6
CONTINUOUS
 62
     7
 10
144.6842970840083
 20
96.06333948274968
 11
144.9981492661787
 21
94.61092953691657
  0
LINE
  8
0
  6
CONTINUOUS
 62
     7
 10
142.4
 20
103.6109295369166
 11
142.4017453735582
 21
103.4109295369166
  0
LINE
  8
0
  6
CONTINUOUS
 62
     7
 10
155.5982546264419
 20
103.4109295369166
 11
155.6
 21
103.6109295369166
  0
LINE
  8
0
  6
CONTINUOUS
 62
     7
 10
56.51797174865391
 20
96.83304122464043
 11
56.99814926617868
 21
94.61092953691657
  0
LINE
  8
0
  6
CONTINUOUS
 62
     7
 10
65.00185073382134
 20
94.61092953691657
 11
65.31570291599171
 21
96.06333948274967
  0
LINE
  8
0
  6
CONTINUOUS
 62
     7
 10
54.40000000000001
 20
103.6109295369166
 11
54.40174537355816
 21
103.4109295369166
  0
LINE
  8
0
  6
CONTINUOUS
 62
     7
 10
67.59825462644186
 20
103.4109295369166
 11
67.60000000000001
 21
103.6109295369166
  0
POLYLINE
  8
0
  6
CONTINUOUS
 62
     7
 66
     1
  0
VERTEX
  8
0
  6
CONTINUOUS
 62
     7
 10
59.76690687402728
 20
94.53793690212737
  0
VERTEX
  8
0
  6
CONTINUOUS
 62
     7
 10
59.71027559848716
 20
94.50162188888457
  0
VERTEX
  8
0
  6
CONTINUOUS
 62
     7
 10
59.65271482166755
 20
94.46458309695883
  0
VERTEX
  8
0
  6
CONTINUOUS
 62
     7
 10
59.59436864077605
 20
94.42682052635017
  0
VERTEX
  8
0
  6
CONTINUOUS
 62
     7
 10
59.55019002274719
 20
94.39802361863299
  0
VERTEX
  8
0
  6
CONTINUOUS
 62
     7
 10
59.53909911003259
 20
94.39076077834288
  0
VERTEX
  8
0
  6
CONTINUOUS
 62
     7
 10
59.53354754501907
 20
94.38711981619372
  0
VERTEX
  8
0
  6
CONTINUOUS
 62
     7
 10
59.5307703032464
 20
94.3852969496181
  0
VERTEX
  8
0
  6
CONTINUOUS
 62
     7
 10
59.53042308105486
 20
94.38506897947578
  0
VERTEX
  8
0
  6
CONTINUOUS
 62
     7
 10
59.53033627320012
 20
94.38501198305755
  0
VERTEX
  8
0
  6
CONTINUOUS
 62
     7
 10
59.53029286892711
 20
94.38498348426603
  0
VERTEX
  8
0
  6
CONTINUOUS
 62
     7
 10
59.53027116670424
 20
94.38496923472468
  0
VERTEX
  8
0
  6
CONTINUOUS
 62
     7
 10
59.53026845392234
 20
94.38496745352519
  0
VERTEX
  8
0
  6
CONTINUOUS
 62
     7
 10
59.53026729051313
 20
94.3849666724112
  0
VERTEX
  8
0
  6
CONTINUOUS
 62
     7
 10
59.53026685809674
 20
94.38496635163143
  0
VERTEX
  8
0
  6
CONTINUOUS
 62
     7
 10
59.50744240042149
 20
94.36681024570649
  0
VERTEX
  8
0
  6
CONTINUOUS
 62
     7
 10
59.48671590073261
 20
94.34764689650085
  0
VERTEX
  8
0
  6
CONTINUOUS
 62
     7
 10
59.46836748294618
 20
94.32750754083386
  0
VERTEX
  8
0
  6
CONTINUOUS
 62
     7
 10
59.45269070167927
 20
94.30643237958436
  0
VERTEX
  8
0
  6
CONTINUOUS
 62
     7
 10
59.44243192503007
 20
94.28924945134293
  0
VERTEX
  8
0
  6
CONTINUOUS
 62
     7
 10
59.43412005007364
 20
94.2715578015256
  0
VERTEX
  8
0
  6
CONTINUOUS
 62
     7
 10
59.42786849164573
 20
94.25340707636849
  0
VERTEX
  8
0
  6
CONTINUOUS
 62
     7
 10
59.42379078694498
 20
94.23485285250865
  0
VERTEX
  8
0
  6
CONTINUOUS
 62
     7
 10
59.42200990565138
 20
94.21624826062443
  0
VERTEX
  8
0
  6
CONTINUOUS
 62
     7
 10
59.42255316485748
 20
94.19737684662766
  0
VERTEX
  8
0
  6
CONTINUOUS
 62
     7
 10
59.42550564833422
 20
94.17830942504985
  0
VERTEX
  8
0
  6
CONTINUOUS
 62
     7
 10
59.43093085688658
 20
94.15912313503742
  0
VERTEX
  8
0
  6
CONTINUOUS
 62
     7
 10
59.43888605035943
 20
94.13990167099877
  0
VERTEX
  8
0
  6
CONTINUOUS
 62
     7
 10
59.44942240597509
 20
94.12073551658064
  0
VERTEX
  8
0
  6
CONTINUOUS
 62
     7
 10
59.46258133162891
 20
94.10172024960656
  0
VERTEX
  8
0
  6
CONTINUOUS
 62
     7
 10
59.47625287004401
 20
94.08527465117997
  0
VERTEX
  8
0
  6
CONTINUOUS
 62
     7
 10
59.49191771707893
 20
94.06906943230936
  0
VERTEX
  8
0
  6
CONTINUOUS
 62
     7
 10
59.50954489583903
 20
94.05316575471873
  0
VERTEX
  8
0
  6
CONTINUOUS
 62
     7
 10
59.52909763555796
 20
94.03762822499831
  0
VERTEX
  8
0
  6
CONTINUOUS
 62
     7
 10
59.53167507246275
 20
94.03571513334911
  0
VERTEX
  8
0
  6
CONTINUOUS
 62
     7
 10
59.53297480090319
 20
94.03476117326237
  0
VERTEX
  8
0
  6
CONTINUOUS
 62
     7
 10
59.53313778223713
 20
94.03464205071688
  0
VERTEX
  8
0
  6
CONTINUOUS
 62
     7
 10
59.53321931581808
 20
94.03458249968956
  0
VERTEX
  8
0
  6
CONTINUOUS
 62
     7
 10
59.53323970368307
 20
94.03456761300068
  0
VERTEX
  8
0
  6
CONTINUOUS
 62
     7
 10
59.53324989828599
 20
94.03456016981647
  0
VERTEX
  8
0
  6
CONTINUOUS
 62
     7
 10
59.53325499575506
 20
94.03455644826442
  0
VERTEX
  8
0
  6
CONTINUOUS
 62
     7
 10
59.53325754453149
 20
94.03455458749842
  0
VERTEX
  8
0
  6
CONTINUOUS
 62
     7
 10
59.53325825819391
 20
94.03455406648514
  0
VERTEX
  8
0
  6
CONTINUOUS
 62
     7
 10
59.53325956676724
 20
94.03455320136696
  0
VERTEX
  8
0
  6
CONTINUOUS
 62
     7
 10
59.53508776242791
 20
94.03336111531333
  0
SEQEND
  8
0
  6
CONTINUOUS
 62
     7
  0
LINE
  8
0
  6
CONTINUOUS
 62
     7
 10
59.53508776242791
 20
94.03336111531333
 11
59.56970828542851
 21
94.01084646655026
  0
LINE
  8
0
  6
CONTINUOUS
 62
     7
 10
59.42180928268944
 20
94.61092984292092
 11
59.56974626913394
 21
94.41081937285732
  0
POLYLINE
  8
0
  6
CONTINUOUS
 62
     7
 66
     1
  0
VERTEX
  8
0
  6
CONTINUOUS
 62
     7
 10
62.32868311003457
 20
93.16161753524767
  0
VERTEX
  8
0
  6
CONTINUOUS
 62
     7
 10
62.38276360759425
 20
93.1974140995553
  0
VERTEX
  8
0
  6
CONTINUOUS
 62
     7
 10
62.43617783643618
 20
93.23290551144224
  0
VERTEX
  8
0
  6
CONTINUOUS
 62
     7
 10
62.4888511979564
 20
93.26809177090776
  0
VERTEX
  8
0
  6
CONTINUOUS
 62
     7
 10
62.51488658770368
 20
93.28557046848233
  0
VERTEX
  8
0
  6
CONTINUOUS
 62
     7
 10
62.52136245432276
 20
93.28992822285949
  0
VERTEX
  8
0
  6
CONTINUOUS
 62
     7
 10
62.52297931926815
 20
93.29101691645273
  0
VERTEX
  8
0
  6
CONTINUOUS
 62
     7
 10
62.52378743489517
 20
93.29156115149921
  0
VERTEX
  8
0
  6
CONTINUOUS
 62
     7
 10
62.5241914133708
 20
93.2918332410849
  0
VERTEX
  8
0
  6
CONTINUOUS
 62
     7
 10
62.52439338275833
 20
93.29196927889336
  0
VERTEX
  8
0
  6
CONTINUOUS
 62
     7
 10
62.52449436248755
 20
93.2920372960515
  0
VERTEX
  8
0
  6
CONTINUOUS
 62
     7
 10
62.52449612960334
 20
93.2920384863414
  0
VERTEX
  8
0
  6
CONTINUOUS
 62
     7
 10
62.52449653226835
 20
93.2920388436368
  0
VERTEX
  8
0
  6
CONTINUOUS
 62
     7
 10
62.53579260909284
 20
93.30422462176296
  0
VERTEX
  8
0
  6
CONTINUOUS
 62
     7
 10
62.54586906094261
 20
93.31705202759387
  0
VERTEX
  8
0
  6
CONTINUOUS
 62
     7
 10
62.55465028615359
 20
93.33043036359805
  0
VERTEX
  8
0
  6
CONTINUOUS
 62
     7
 10
62.56206974005879
 20
93.34427480917442
  0
VERTEX
  8
0
  6
CONTINUOUS
 62
     7
 10
62.56927564124373
 20
93.3619148650824
  0
VERTEX
  8
0
  6
CONTINUOUS
 62
     7
 10
62.57425177603476
 20
93.37998934189885
  0
VERTEX
  8
0
  6
CONTINUOUS
 62
     7
 10
62.57697667304263
 20
93.39833864493475
  0
VERTEX
  8
0
  6
CONTINUOUS
 62
     7
 10
62.57743785390785
 20
93.41681810514159
  0
VERTEX
  8
0
  6
CONTINUOUS
 62
     7
 10
62.57563132020258
 20
93.43529808156697
  0
VERTEX
  8
0
  6
CONTINUOUS
 62
     7
 10
62.57158737352056
 20
93.45366324259074
  0
VERTEX
  8
0
  6
CONTINUOUS
 62
     7
 10
62.56386781015216
 20
93.475407564972
  0
VERTEX
  8
0
  6
CONTINUOUS
 62
     7
 10
62.55312127696538
 20
93.49668938354374
  0
VERTEX
  8
0
  6
CONTINUOUS
 62
     7
 10
62.5394534016926
 20
93.51738374038284
  0
VERTEX
  8
0
  6
CONTINUOUS
 62
     7
 10
62.52299945874143
 20
93.5374089514457
  0
VERTEX
  8
0
  6
CONTINUOUS
 62
     7
 10
62.50390925014393
 20
93.55671723336725
  0
VERTEX
  8
0
  6
CONTINUOUS
 62
     7
 10
62.49069922142585
 20
93.56840572353096
  0
VERTEX
  8
0
  6
CONTINUOUS
 62
     7
 10
62.47654295686377
 20
93.57979582104116
  0
VERTEX
  8
0
  6
CONTINUOUS
 62
     7
 10
62.47285996714083
 20
93.58259628903278
  0
VERTEX
  8
0
  6
CONTINUOUS
 62
     7
 10
62.47193036610761
 20
93.58329345391998
  0
VERTEX
  8
0
  6
CONTINUOUS
 62
     7
 10
62.47169741465817
 20
93.5834675605026
  0
VERTEX
  8
0
  6
CONTINUOUS
 62
     7
 10
62.47163914237991
 20
93.58351107560641
  0
VERTEX
  8
0
  6
CONTINUOUS
 62
     7
 10
62.47162457215988
 20
93.58352195366098
  0
VERTEX
  8
0
  6
CONTINUOUS
 62
     7
 10
62.47162092947045
 20
93.5835246731295
  0
VERTEX
  8
0
  6
CONTINUOUS
 62
     7
 10
62.47162041948965
 20
93.58352505385369
  0
VERTEX
  8
0
  6
CONTINUOUS
 62
     7
 10
62.47161941341715
 20
93.58352572068952
  0
VERTEX
  8
0
  6
CONTINUOUS
 62
     7
 10
62.47098187641597
 20
93.58394405150214
  0
SEQEND
  8
0
  6
CONTINUOUS
 62
     7
  0
LINE
  8
0
  6
CONTINUOUS
 62
     7
 10
62.47098187641597
 20
93.58394405150214
 11
62.42962156591368
 21
93.6110036463614
  0
POLYLINE
  8
0
  6
CONTINUOUS
 62
     7
 66
     1
  0
VERTEX
  8
0
  6
CONTINUOUS
 62
     7
 10
62.23567787539911
 20
93.8855624898702
  0
VERTEX
  8
0
  6
CONTINUOUS
 62
     7
 10
62.28941096246794
 20
93.92007354056152
  0
VERTEX
  8
0
  6
CONTINUOUS
 62
     7
 10
62.34433371630752
 20
93.95546523624449
  0
VERTEX
  8
0
  6
CONTINUOUS
 62
     7
 10
62.40031648367984
 20
93.99173757691915
  0
VERTEX
  8
0
  6
CONTINUOUS
 62
     7
 10
62.44291037444574
 20
94.01951975570093
  0
VERTEX
  8
0
  6
CONTINUOUS
 62
     7
 10
62.46437792955498
 20
94.03359660614477
  0
VERTEX
  8
0
  6
CONTINUOUS
 62
     7
 10
62.46976102464713
 20
94.0371351688654
  0
VERTEX
  8
0
  6
CONTINUOUS
 62
     7
 10
62.47110777026152
 20
94.03802101892741
  0
VERTEX
  8
0
  6
CONTINUOUS
 62
     7
 10
62.47144451675394
 20
94.03824255702929
  0
VERTEX
  8
0
  6
CONTINUOUS
 62
     7
 10
62.47152870712239
 20
94.0382979462789
  0
VERTEX
  8
0
  6
CONTINUOUS
 62
     7
 10
62.47154975494841
 20
94.03831179388656
  0
VERTEX
  8
0
  6
CONTINUOUS
 62
     7
 10
62.47155501691955
 20
94.03831525580694
  0
VERTEX
  8
0
  6
CONTINUOUS
 62
     7
 10
62.47155634868356
 20
94.03831613914046
  0
VERTEX
  8
0
  6
CONTINUOUS
 62
     7
 10
62.47155676468829
 20
94.03831645027567
  0
VERTEX
  8
0
  6
CONTINUOUS
 62
     7
 10
62.49315702614972
 20
94.05559127548062
  0
VERTEX
  8
0
  6
CONTINUOUS
 62
     7
 10
62.51295987399744
 20
94.07388724652988
  0
VERTEX
  8
0
  6
CONTINUOUS
 62
     7
 10
62.53068140245873
 20
94.0931862602074
  0
VERTEX
  8
0
  6
CONTINUOUS
 62
     7
 10
62.54602050439129
 20
94.11346097242027
  0
VERTEX
  8
0
  6
CONTINUOUS
 62
     7
 10
62.55620738354322
 20
94.13005152159852
  0
VERTEX
  8
0
  6
CONTINUOUS
 62
     7
 10
62.56460349639791
 20
94.14719240914361
  0
VERTEX
  8
0
  6
CONTINUOUS
 62
     7
 10
62.57108293526672
 20
94.1648412892034
  0
VERTEX
  8
0
  6
CONTINUOUS
 62
     7
 10
62.57551910765876
 20
94.1829490919152
  0
VERTEX
  8
0
  6
CONTINUOUS
 62
     7
 10
62.57779058619503
 20
94.20156207660939
  0
VERTEX
  8
0
  6
CONTINUOUS
 62
     7
 10
62.57773757508521
 20
94.22051934709566
  0
VERTEX
  8
0
  6
CONTINUOUS
 62
     7
 10
62.57524385703324
 20
94.23975016214773
  0
VERTEX
  8
0
  6
CONTINUOUS
 62
     7
 10
62.57022029772347
 20
94.2591761664932
  0
VERTEX
  8
0
  6
CONTINUOUS
 62
     7
 10
62.56258586118791
 20
94.27871106061879
  0
VERTEX
  8
0
  6
CONTINUOUS
 62
     7
 10
62.55226581029618
 20
94.29826026493132
  0
VERTEX
  8
0
  6
CONTINUOUS
 62
     7
 10
62.53919372221661
 20
94.31772141387808
  0
VERTEX
  8
0
  6
CONTINUOUS
 62
     7
 10
62.52547000538616
 20
94.33460068617981
  0
VERTEX
  8
0
  6
CONTINUOUS
 62
     7
 10
62.50961907048866
 20
94.35127469045165
  0
VERTEX
  8
0
  6
CONTINUOUS
 62
     7
 10
62.49166155326524
 20
94.36767633543094
  0
VERTEX
  8
0
  6
CONTINUOUS
 62
     7
 10
62.47162533176353
 20
94.383734209277
  0
VERTEX
  8
0
  6
CONTINUOUS
 62
     7
 10
62.46629540665738
 20
94.38768617237838
  0
VERTEX
  8
0
  6
CONTINUOUS
 62
     7
 10
62.46494303085124
 20
94.38866992486979
  0
VERTEX
  8
0
  6
CONTINUOUS
 62
     7
 10
62.46492183696558
 20
94.38868528229455
  0
VERTEX
  8
0
  6
CONTINUOUS
 62
     7
 10
62.46491123929598
 20
94.38869296084816
  0
VERTEX
  8
0
  6
CONTINUOUS
 62
     7
 10
62.46490594027948
 20
94.38869680008527
  0
VERTEX
  8
0
  6
CONTINUOUS
 62
     7
 10
62.46490329072582
 20
94.38869871969389
  0
VERTEX
  8
0
  6
CONTINUOUS
 62
     7
 10
62.46490254884536
 20
94.38869925718312
  0
VERTEX
  8
0
  6
CONTINUOUS
 62
     7
 10
62.46490143124906
 20
94.38870000575346
  0
VERTEX
  8
0
  6
CONTINUOUS
 62
     7
 10
62.4644421305556
 20
94.3889989964336
  0
SEQEND
  8
0
  6
CONTINUOUS
 62
     7
  0
LINE
  8
0
  6
CONTINUOUS
 62
     7
 10
62.4644421305556
 20
94.3889989964336
 11
62.43059887521304
 21
94.41097544275327
  0
POLYLINE
  8
0
  6
CONTINUOUS
 62
     7
 66
     1
  0
VERTEX
  8
0
  6
CONTINUOUS
 62
     7
 10
62.23642785048951
 20
93.4860154979594
  0
VERTEX
  8
0
  6
CONTINUOUS
 62
     7
 10
62.29010691217084
 20
93.52048821472462
  0
VERTEX
  8
0
  6
CONTINUOUS
 62
     7
 10
62.34496576161521
 20
93.55584280577222
  0
VERTEX
  8
0
  6
CONTINUOUS
 62
     7
 10
62.40086692938662
 20
93.59207927110113
  0
VERTEX
  8
0
  6
CONTINUOUS
 62
     7
 10
62.4433852287172
 20
93.6198353500945
  0
VERTEX
  8
0
  6
CONTINUOUS
 62
     7
 10
62.46481133283984
 20
93.63389940994732
  0
VERTEX
  8
0
  6
CONTINUOUS
 62
     7
 10
62.47018377212397
 20
93.63743480203094
  0
VERTEX
  8
0
  6
CONTINUOUS
 62
     7
 10
62.47152783786537
 20
93.63831986112187
  0
VERTEX
  8
0
  6
CONTINUOUS
 62
     7
 10
62.47186391343307
 20
93.63854120158649
  0
VERTEX
  8
0
  6
CONTINUOUS
 62
     7
 10
62.47194793601116
 20
93.63859654143339
  0
VERTEX
  8
0
  6
CONTINUOUS
 62
     7
 10
62.47196894188593
 20
93.63861037669078
  0
VERTEX
  8
0
  6
CONTINUOUS
 62
     7
 10
62.471974193369
 20
93.63861383552361
  0
VERTEX
  8
0
  6
CONTINUOUS
 62
     7
 10
62.47197552215722
 20
93.63861471799262
  0
VERTEX
  8
0
  6
CONTINUOUS
 62
     7
 10
62.47197593564958
 20
93.63861502844857
  0
VERTEX
  8
0
  6
CONTINUOUS
 62
     7
 10
62.49344066491656
 20
93.65585398668156
  0
VERTEX
  8
0
  6
CONTINUOUS
 62
     7
 10
62.51311851802471
 20
93.67411553790406
  0
VERTEX
  8
0
  6
CONTINUOUS
 62
     7
 10
62.53074378041058
 20
93.69338157890034
  0
VERTEX
  8
0
  6
CONTINUOUS
 62
     7
 10
62.54603247679211
 20
93.71362476557792
  0
VERTEX
  8
0
  6
CONTINUOUS
 62
     7
 10
62.55621015695531
 20
93.7301915599102
  0
VERTEX
  8
0
  6
CONTINUOUS
 62
     7
 10
62.56461702592952
 20
93.74730958600098
  0
VERTEX
  8
0
  6
CONTINUOUS
 62
     7
 10
62.57112011870042
 20
93.76493649799845
  0
VERTEX
  8
0
  6
CONTINUOUS
 62
     7
 10
62.57558500934149
 20
93.78302322604023
  0
VERTEX
  8
0
  6
CONTINUOUS
 62
     7
 10
62.5778817643412
 20
93.80161592195337
  0
VERTEX
  8
0
  6
CONTINUOUS
 62
     7
 10
62.57784088283783
 20
93.82055380681277
  0
VERTEX
  8
0
  6
CONTINUOUS
 62
     7
 10
62.57533606959178
 20
93.83976613939251
  0
VERTEX
  8
0
  6
CONTINUOUS
 62
     7
 10
62.57027751403763
 20
93.85917456442037
  0
VERTEX
  8
0
  6
CONTINUOUS
 62
     7
 10
62.56259687610716
 20
93.87869278238301
  0
VERTEX
  8
0
  6
CONTINUOUS
 62
     7
 10
62.5522341563973
 20
93.8982262136872
  0
VERTEX
  8
0
  6
CONTINUOUS
 62
     7
 10
62.53913886224112
 20
93.91767249278003
  0
VERTEX
  8
0
  6
CONTINUOUS
 62
     7
 10
62.52542313768111
 20
93.93453949482844
  0
VERTEX
  8
0
  6
CONTINUOUS
 62
     7
 10
62.5096067840252
 20
93.95120192032442
  0
VERTEX
  8
0
  6
CONTINUOUS
 62
     7
 10
62.49170320519401
 20
93.96759267800527
  0
VERTEX
  8
0
  6
CONTINUOUS
 62
     7
 10
62.47173248048413
 20
93.98364035603022
  0
VERTEX
  8
0
  6
CONTINUOUS
 62
     7
 10
62.4664197776555
 20
93.98758987821965
  0
VERTEX
  8
0
  6
CONTINUOUS
 62
     7
 10
62.46507172439239
 20
93.98857302723577
  0
VERTEX
  8
0
  6
CONTINUOUS
 62
     7
 10
62.46505059807257
 20
93.98858837525268
  0
VERTEX
  8
0
  6
CONTINUOUS
 62
     7
 10
62.4650400341861
 20
93.98859604910258
  0
VERTEX
  8
0
  6
CONTINUOUS
 62
     7
 10
62.46503475206125
 20
93.98859988598791
  0
VERTEX
  8
0
  6
CONTINUOUS
 62
     7
 10
62.46503211095342
 20
93.98860180442067
  0
VERTEX
  8
0
  6
CONTINUOUS
 62
     7
 10
62.46503137143779
 20
93.98860234158066
  0
VERTEX
  8
0
  6
CONTINUOUS
 62
     7
 10
62.46503025565127
 20
93.98860308989231
  0
VERTEX
  8
0
  6
CONTINUOUS
 62
     7
 10
62.46457192647411
 20
93.98890169795364
  0
SEQEND
  8
0
  6
CONTINUOUS
 62
     7
  0
LINE
  8
0
  6
CONTINUOUS
 62
     7
 10
62.46457192647411
 20
93.98890169795364
 11
62.4302864679232
 21
94.01118271138043
  0
POLYLINE
  8
0
  6
CONTINUOUS
 62
     7
 66
     1
  0
VERTEX
  8
0
  6
CONTINUOUS
 62
     7
 10
59.76513611816456
 20
93.73680317160452
  0
VERTEX
  8
0
  6
CONTINUOUS
 62
     7
 10
59.6827082624015
 20
93.6838243403622
  0
VERTEX
  8
0
  6
CONTINUOUS
 62
     7
 10
59.59897101880144
 20
93.62962489947381
  0
VERTEX
  8
0
  6
CONTINUOUS
 62
     7
 10
59.55669376696972
 20
93.6020674504137
  0
VERTEX
  8
0
  6
CONTINUOUS
 62
     7
 10
59.53546833215718
 20
93.58817429372992
  0
VERTEX
  8
0
  6
CONTINUOUS
 62
     7
 10
59.53015370203713
 20
93.58468908454299
  0
VERTEX
  8
0
  6
CONTINUOUS
 62
     7
 10
59.52882454733528
 20
93.58381703724524
  0
VERTEX
  8
0
  6
CONTINUOUS
 62
     7
 10
59.52849222789787
 20
93.58359897885825
  0
VERTEX
  8
0
  6
CONTINUOUS
 62
     7
 10
59.52840914612076
 20
93.58354446135135
  0
VERTEX
  8
0
  6
CONTINUOUS
 62
     7
 10
59.5283883755567
 20
93.58353083179273
  0
VERTEX
  8
0
  6
CONTINUOUS
 62
     7
 10
59.52838318290819
 20
93.5835274243917
  0
VERTEX
  8
0
  6
CONTINUOUS
 62
     7
 10
59.52838058658282
 20
93.5835257206895
  0
VERTEX
  8
0
  6
CONTINUOUS
 62
     7
 10
59.52837947122861
 20
93.58352497226991
  0
VERTEX
  8
0
  6
CONTINUOUS
 62
     7
 10
59.52837907052949
 20
93.58352467312947
  0
VERTEX
  8
0
  6
CONTINUOUS
 62
     7
 10
59.50404844116572
 20
93.56389461971277
  0
VERTEX
  8
0
  6
CONTINUOUS
 62
     7
 10
59.48255983680391
 20
93.54338589391172
  0
VERTEX
  8
0
  6
CONTINUOUS
 62
     7
 10
59.46407646400709
 20
93.52203343725087
  0
VERTEX
  8
0
  6
CONTINUOUS
 62
     7
 10
59.44878031147238
 20
93.49989138943248
  0
VERTEX
  8
0
  6
CONTINUOUS
 62
     7
 10
59.43684757270113
 20
93.47705113957768
  0
VERTEX
  8
0
  6
CONTINUOUS
 62
     7
 10
59.42841262647946
 20
93.45366324259072
  0
VERTEX
  8
0
  6
CONTINUOUS
 62
     7
 10
59.42436867979744
 20
93.43529808156696
  0
VERTEX
  8
0
  6
CONTINUOUS
 62
     7
 10
59.42256214609217
 20
93.41681810514157
  0
VERTEX
  8
0
  6
CONTINUOUS
 62
     7
 10
59.4230233269574
 20
93.39833864493475
  0
VERTEX
  8
0
  6
CONTINUOUS
 62
     7
 10
59.42574822396524
 20
93.37998934189885
  0
VERTEX
  8
0
  6
CONTINUOUS
 62
     7
 10
59.43072435875629
 20
93.3619148650824
  0
VERTEX
  8
0
  6
CONTINUOUS
 62
     7
 10
59.43793025994121
 20
93.34427480917444
  0
VERTEX
  8
0
  6
CONTINUOUS
 62
     7
 10
59.44730304567308
 20
93.32722566712263
  0
VERTEX
  8
0
  6
CONTINUOUS
 62
     7
 10
59.45873357492722
 20
93.31091900067537
  0
VERTEX
  8
0
  6
CONTINUOUS
 62
     7
 10
59.47208960598827
 20
93.29551895243645
  0
VERTEX
  8
0
  6
CONTINUOUS
 62
     7
 10
59.47479631305367
 20
93.29274659606422
  0
VERTEX
  8
0
  6
CONTINUOUS
 62
     7
 10
59.4754826308192
 20
93.29205960275515
  0
VERTEX
  8
0
  6
CONTINUOUS
 62
     7
 10
59.47549338491709
 20
93.29204888808799
  0
VERTEX
  8
0
  6
CONTINUOUS
 62
     7
 10
59.47549876231609
 20
93.29204353098122
  0
VERTEX
  8
0
  6
CONTINUOUS
 62
     7
 10
59.47550145110311
 20
93.29204085248453
  0
VERTEX
  8
0
  6
CONTINUOUS
 62
     7
 10
59.47550279551849
 20
93.29203951325036
  0
VERTEX
  8
0
  6
CONTINUOUS
 62
     7
 10
59.47550346773165
 20
93.29203884363683
  0
VERTEX
  8
0
  6
CONTINUOUS
 62
     7
 10
59.47550424906423
 20
93.29203823127934
  0
VERTEX
  8
0
  6
CONTINUOUS
 62
     7
 10
59.47550563751242
 20
93.29203729605152
  0
VERTEX
  8
0
  6
CONTINUOUS
 62
     7
 10
59.4775783337667
 20
93.29064139795479
  0
SEQEND
  8
0
  6
CONTINUOUS
 62
     7
  0
LINE
  8
0
  6
CONTINUOUS
 62
     7
 10
59.4775783337667
 20
93.29064139795479
 11
59.59890298205367
 21
93.20957788884013
  0
POLYLINE
  8
0
  6
CONTINUOUS
 62
     7
 66
     1
  0
VERTEX
  8
0
  6
CONTINUOUS
 62
     7
 10
62.2337154313614
 20
94.28425121226736
  0
VERTEX
  8
0
  6
CONTINUOUS
 62
     7
 10
62.30470972697383
 20
94.3297753694774
  0
VERTEX
  8
0
  6
CONTINUOUS
 62
     7
 10
62.37531327837738
 20
94.37522711344845
  0
VERTEX
  8
0
  6
CONTINUOUS
 62
     7
 10
62.44529043479089
 20
94.42060644418048
  0
VERTEX
  8
0
  6
CONTINUOUS
 62
     7
 10
62.4583222374261
 20
94.4291070070626
  0
VERTEX
  8
0
  6
CONTINUOUS
 62
     7
 10
62.4648262765974
 20
94.43335633383694
  0
VERTEX
  8
0
  6
CONTINUOUS
 62
     7
 10
62.46645101769813
 20
94.43441856608607
  0
VERTEX
  8
0
  6
CONTINUOUS
 62
     7
 10
62.4668571228456
 20
94.43468411793307
  0
VERTEX
  8
0
  6
CONTINUOUS
 62
     7
 10
62.46706016336739
 20
94.43481689292427
  0
VERTEX
  8
0
  6
CONTINUOUS
 62
     7
 10
62.46716168061268
 20
94.43488328018681
  0
VERTEX
  8
0
  6
CONTINUOUS
 62
     7
 10
62.46717437012693
 20
94.43489157858372
  0
VERTEX
  8
0
  6
CONTINUOUS
 62
     7
 10
62.46717754250061
 20
94.43489365318256
  0
VERTEX
  8
0
  6
CONTINUOUS
 62
     7
 10
62.46717878799862
 20
94.43489449143114
  0
VERTEX
  8
0
  6
CONTINUOUS
 62
     7
 10
62.46717928854052
 20
94.43489485879871
  0
VERTEX
  8
0
  6
CONTINUOUS
 62
     7
 10
62.48842640768168
 20
94.45152096851717
  0
VERTEX
  8
0
  6
CONTINUOUS
 62
     7
 10
62.50762609203012
 20
94.46871350409475
  0
VERTEX
  8
0
  6
CONTINUOUS
 62
     7
 10
62.52468677029199
 20
94.48641263076546
  0
VERTEX
  8
0
  6
CONTINUOUS
 62
     7
 10
62.54110994385066
 20
94.50671620808937
  0
VERTEX
  8
0
  6
CONTINUOUS
 62
     7
 10
62.55462989668445
 20
94.52749599221573
  0
VERTEX
  8
0
  6
CONTINUOUS
 62
     7
 10
62.56515240554516
 20
94.54865821646119
  0
VERTEX
  8
0
  6
CONTINUOUS
 62
     7
 10
62.57261562506775
 20
94.5700950266709
  0
VERTEX
  8
0
  6
CONTINUOUS
 62
     7
 10
62.57696645777172
 20
94.59169876541829
  0
VERTEX
  8
0
  6
CONTINUOUS
 62
     7
 10
62.57819071731058
 20
94.61092984292094
  0
SEQEND
  8
0
  6
CONTINUOUS
 62
     7
  0
POLYLINE
  8
0
  6
CONTINUOUS
 62
     7
 66
     1
  0
VERTEX
  8
0
  6
CONTINUOUS
 62
     7
 10
59.76662528096525
 20
94.13780918036777
  0
VERTEX
  8
0
  6
CONTINUOUS
 62
     7
 10
59.71271162955252
 20
94.10323723073003
  0
VERTEX
  8
0
  6
CONTINUOUS
 62
     7
 10
59.65763385411077
 20
94.06779203575464
  0
VERTEX
  8
0
  6
CONTINUOUS
 62
     7
 10
59.60151680468748
 20
94.0314735954416
  0
VERTEX
  8
0
  6
CONTINUOUS
 62
     7
 10
59.55883193402192
 20
94.00366169795404
  0
VERTEX
  8
0
  6
CONTINUOUS
 62
     7
 10
59.53732083202112
 20
93.98957154902187
  0
VERTEX
  8
0
  6
CONTINUOUS
 62
     7
 10
59.53192697157974
 20
93.98602982426922
  0
VERTEX
  8
0
  6
CONTINUOUS
 62
     7
 10
59.53057754001546
 20
93.98514319386108
  0
VERTEX
  8
0
  6
CONTINUOUS
 62
     7
 10
59.53024012233696
 20
93.98492146130779
  0
VERTEX
  8
0
  6
CONTINUOUS
 62
     7
 10
59.53015576419029
 20
93.98486602348501
  0
VERTEX
  8
0
  6
CONTINUOUS
 62
     7
 10
59.53013467442081
 20
93.98485216373655
  0
VERTEX
  8
0
  6
CONTINUOUS
 62
     7
 10
59.53012940196392
 20
93.98484869878114
  0
VERTEX
  8
0
  6
CONTINUOUS
 62
     7
 10
59.53012676573326
 20
93.98484696630068
  0
VERTEX
  8
0
  6
CONTINUOUS
 62
     7
 10
59.53012562762549
 20
93.984846201765
  0
VERTEX
  8
0
  6
CONTINUOUS
 62
     7
 10
59.53012520847766
 20
93.98484588996172
  0
VERTEX
  8
0
  6
CONTINUOUS
 62
     7
 10
59.50835933249463
 20
93.96753953809238
  0
VERTEX
  8
0
  6
CONTINUOUS
 62
     7
 10
59.48838801767713
 20
93.94922076217051
  0
VERTEX
  8
0
  6
CONTINUOUS
 62
     7
 10
59.47047880326662
 20
93.92990766520616
  0
VERTEX
  8
0
  6
CONTINUOUS
 62
     7
 10
59.45491807017309
 20
93.90962759088346
  0
VERTEX
  8
0
  6
CONTINUOUS
 62
     7
 10
59.44453695074865
 20
93.89303894636001
  0
VERTEX
  8
0
  6
CONTINUOUS
 62
     7
 10
59.43593759520812
 20
93.87590534628417
  0
VERTEX
  8
0
  6
CONTINUOUS
 62
     7
 10
59.42925496252295
 20
93.85826913565788
  0
VERTEX
  8
0
  6
CONTINUOUS
 62
     7
 10
59.42462571643909
 20
93.84017938339628
  0
VERTEX
  8
0
  6
CONTINUOUS
 62
     7
 10
59.42217996794656
 20
93.82158986058356
  0
VERTEX
  8
0
  6
CONTINUOUS
 62
     7
 10
59.42207573006632
 20
93.80266148578693
  0
VERTEX
  8
0
  6
CONTINUOUS
 62
     7
 10
59.42441905207107
 20
93.78346500008861
  0
VERTEX
  8
0
  6
CONTINUOUS
 62
     7
 10
59.42928801544457
 20
93.7640787586144
  0
VERTEX
  8
0
  6
CONTINUOUS
 62
     7
 10
59.43675179318999
 20
93.7445890607284
  0
VERTEX
  8
0
  6
CONTINUOUS
 62
     7
 10
59.44687248398544
 20
93.72509048587203
  0
VERTEX
  8
0
  6
CONTINUOUS
 62
     7
 10
59.45970313841867
 20
93.70568539959474
  0
VERTEX
  8
0
  6
CONTINUOUS
 62
     7
 10
59.47317110514386
 20
93.6888596394822
  0
VERTEX
  8
0
  6
CONTINUOUS
 62
     7
 10
59.48872695979995
 20
93.67224330757458
  0
VERTEX
  8
0
  6
CONTINUOUS
 62
     7
 10
59.50635982396732
 20
93.65590349505526
  0
VERTEX
  8
0
  6
CONTINUOUS
 62
     7
 10
59.52605238485733
 20
93.63991161368449
  0
VERTEX
  8
0
  6
CONTINUOUS
 62
     7
 10
59.5312947293149
 20
93.63597679869481
  0
VERTEX
  8
0
  6
CONTINUOUS
 62
     7
 10
59.532625155095
 20
93.63499737385554
  0
VERTEX
  8
0
  6
CONTINUOUS
 62
     7
 10
59.53264600587539
 20
93.63498208417928
  0
VERTEX
  8
0
  6
CONTINUOUS
 62
     7
 10
59.53265643199087
 20
93.6349744395014
  0
VERTEX
  8
0
  6
CONTINUOUS
 62
     7
 10
59.53266164522996
 20
93.63497061720254
  0
VERTEX
  8
0
  6
CONTINUOUS
 62
     7
 10
59.53266425189482
 20
93.63496870606312
  0
VERTEX
  8
0
  6
CONTINUOUS
 62
     7
 10
59.53266555523857
 20
93.63496775049592
  0
VERTEX
  8
0
  6
CONTINUOUS
 62
     7
 10
59.53266667477518
 20
93.63496697800407
  0
SEQEND
  8
0
  6
CONTINUOUS
 62
     7
  0
LINE
  8
0
  6
CONTINUOUS
 62
     7
 10
59.53266750312172
 20
93.6349664371479
 11
59.56986571761068
 21
93.61074713060465
  0
LINE
  8
0
  6
CONTINUOUS
 62
     7
 10
59.6215064
 20
92.95139322638434
 11
59.6215064
 21
92.41092953691658
  0
LINE
  8
0
  6
CONTINUOUS
 62
     7
 10
59.6215064
 20
93.26100492099613
 11
59.6215064
 21
93.23235450123326
  0
LINE
  8
0
  6
CONTINUOUS
 62
     7
 10
59.6215064
 20
93.66098398864226
 11
59.6215064
 21
93.64421106219731
  0
LINE
  8
0
  6
CONTINUOUS
 62
     7
 10
59.6215064
 20
94.0610297658093
 11
59.6215064
 21
94.04441067840837
  0
LINE
  8
0
  6
CONTINUOUS
 62
     7
 10
59.6215064
 20
94.46098789470307
 11
59.6215064
 21
94.44438451311326
  0
LINE
  8
0
  6
CONTINUOUS
 62
     7
 10
62.37849360000001
 20
94.36081114489203
 11
62.37849360000001
 21
94.37728951315351
  0
LINE
  8
0
  6
CONTINUOUS
 62
     7
 10
62.37849360000001
 20
93.96085657708319
 11
62.37849360000001
 21
93.9775980995676
  0
LINE
  8
0
  6
CONTINUOUS
 62
     7
 10
62.37849360000001
 20
93.56083102922602
 11
62.37849360000001
 21
93.57757634733528
  0
LINE
  8
0
  6
CONTINUOUS
 62
     7
 10
62.37849360000001
 20
93.07599012122803
 11
62.37849360000001
 21
93.19458772760352
  0
LINE
  8
0
  6
CONTINUOUS
 62
     7
 10
62.37849360000001
 20
92.41092953691658
 11
62.37849360000001
 21
92.93926381923225
  0
POLYLINE
  8
0
  6
CONTINUOUS
 62
     7
 66
     1
  0
VERTEX
  8
0
  6
CONTINUOUS
 62
     7
 10
59.65682309013628
 20
93.26119335424904
  0
VERTEX
  8
0
  6
CONTINUOUS
 62
     7
 10
59.63769573445514
 20
93.24642088028142
  0
VERTEX
  8
0
  6
CONTINUOUS
 62
     7
 10
59.61976467679069
 20
93.23084117535028
  0
VERTEX
  8
0
  6
CONTINUOUS
 62
     7
 10
59.60323643840492
 20
93.21445346716986
  0
VERTEX
  8
0
  6
CONTINUOUS
 62
     7
 10
59.5883379631402
 20
93.19726100207622
  0
VERTEX
  8
0
  6
CONTINUOUS
 62
     7
 10
59.57530840529393
 20
93.17927218134774
  0
VERTEX
  8
0
  6
CONTINUOUS
 62
     7
 10
59.56456359155954
 20
93.16084458084295
  0
VERTEX
  8
0
  6
CONTINUOUS
 62
     7
 10
59.55607214851752
 20
93.14169413351138
  0
VERTEX
  8
0
  6
CONTINUOUS
 62
     7
 10
59.55004636649095
 20
93.12186452402642
  0
VERTEX
  8
0
  6
CONTINUOUS
 62
     7
 10
59.5466968049705
 20
93.10140956639269
  0
VERTEX
  8
0
  6
CONTINUOUS
 62
     7
 10
59.54614798083425
 20
93.08232574311948
  0
VERTEX
  8
0
  6
CONTINUOUS
 62
     7
 10
59.54813239522787
 20
93.0628354511232
  0
VERTEX
  8
0
  6
CONTINUOUS
 62
     7
 10
59.55277942445464
 20
93.04300411468202
  0
VERTEX
  8
0
  6
CONTINUOUS
 62
     7
 10
59.56019319598887
 20
93.02290610020037
  0
VERTEX
  8
0
  6
CONTINUOUS
 62
     7
 10
59.57046437691104
 20
93.00262527227184
  0
VERTEX
  8
0
  6
CONTINUOUS
 62
     7
 10
59.583669435296
 20
92.98225555750132
  0
VERTEX
  8
0
  6
CONTINUOUS
 62
     7
 10
59.59986797558023
 20
92.96190063583559
  0
VERTEX
  8
0
  6
CONTINUOUS
 62
     7
 10
59.61908083409359
 20
92.94166238173851
  0
VERTEX
  8
0
  6
CONTINUOUS
 62
     7
 10
59.62136113992148
 20
92.93946348107774
  0
SEQEND
  8
0
  6
CONTINUOUS
 62
     7
  0
POLYLINE
  8
0
  6
CONTINUOUS
 62
     7
 66
     1
  0
VERTEX
  8
0
  6
CONTINUOUS
 62
     7
 10
62.37166813434294
 20
92.93277377078601
  0
VERTEX
  8
0
  6
CONTINUOUS
 62
     7
 10
62.38443014717847
 20
92.94478812141797
  0
VERTEX
  8
0
  6
CONTINUOUS
 62
     7
 10
62.39962182941971
 20
92.9607510451899
  0
VERTEX
  8
0
  6
CONTINUOUS
 62
     7
 10
62.41353028500434
 20
92.97760793738465
  0
VERTEX
  8
0
  6
CONTINUOUS
 62
     7
 10
62.42567580921411
 20
92.99505566734277
  0
VERTEX
  8
0
  6
CONTINUOUS
 62
     7
 10
62.43604657444149
 20
93.01339453599537
  0
VERTEX
  8
0
  6
CONTINUOUS
 62
     7
 10
62.44435938022202
 20
93.03261554476565
  0
VERTEX
  8
0
  6
CONTINUOUS
 62
     7
 10
62.45031354811782
 20
93.05269575947744
  0
VERTEX
  8
0
  6
CONTINUOUS
 62
     7
 10
62.45306024795771
 20
93.06845701368768
  0
VERTEX
  8
0
  6
CONTINUOUS
 62
     7
 10
62.45412724223645
 20
93.08466602180702
  0
VERTEX
  8
0
  6
CONTINUOUS
 62
     7
 10
62.45336870939902
 20
93.10129287419105
  0
VERTEX
  8
0
  6
CONTINUOUS
 62
     7
 10
62.45064940190265
 20
93.1183007168009
  0
VERTEX
  8
0
  6
CONTINUOUS
 62
     7
 10
62.44583718453026
 20
93.13564521104581
  0
VERTEX
  8
0
  6
CONTINUOUS
 62
     7
 10
62.43880073692205
 20
93.15327401368559
  0
VERTEX
  8
0
  6
CONTINUOUS
 62
     7
 10
62.429409904062
 20
93.17112616235596
  0
VERTEX
  8
0
  6
CONTINUOUS
 62
     7
 10
62.4175360880472
 20
93.18913157280333
  0
VERTEX
  8
0
  6
CONTINUOUS
 62
     7
 10
62.40306420554418
 20
93.20721722921402
  0
VERTEX
  8
0
  6
CONTINUOUS
 62
     7
 10
62.40106858904475
 20
93.20947925656473
  0
SEQEND
  8
0
  6
CONTINUOUS
 62
     7
  0
LINE
  8
0
  6
CONTINUOUS
 62
     7
 10
158.8404409695212
 20
97.96597172441228
 11
158.9704714298154
 21
99.46364243412957
  0
LINE
  8
0
  6
CONTINUOUS
 62
     7
 10
51.0295285701846
 20
99.46364243412954
 11
51.15955903047887
 21
97.96597172441228
  0
ARC
  8
0
  6
CONTINUOUS
 62
     7
 10
158.0434392390372
 20
98.03516884578066
 40
0.7999999999999919
 50
275.0000000000041
 51
355.0379206673442
  0
ARC
  8
0
  6
CONTINUOUS
 62
     7
 10
51.95656076096279
 20
98.03516884578066
 40
0.8000000000000009
 50
184.9620793326555
 51
265.0000000000031
  0
LINE
  8
0
  6
CONTINUOUS
 62
     7
 10
100.7
 20
92.96761462106554
 11
100.7
 21
91.51092953691656
  0
LINE
  8
0
  6
CONTINUOUS
 62
     7
 10
109.3
 20
91.51092953691656
 11
109.3
 21
92.96761462106554
  0
ENDBLK
  8
0
  0
BLOCK
  8
0
  2
D_FRAME_VIEW_1280
 70
     0
 10
0.0
 20
0.0
  0
CIRCLE
  8
0
  6
CONTINUOUS
 62
     7
 10
105.0
 20
205.0
 40
1.211803990416149
  0
CIRCLE
  8
0
  6
CONTINUOUS
 62
     7
 10
105.0
 20
205.0
 40
1.299966689618681
  0
CIRCLE
  8
0
  6
CONTINUOUS
 62
     7
 10
105.0
 20
205.0
 40
1.200000000000007
  0
CIRCLE
  8
0
  6
CONTINUOUS
 62
     7
 10
149.0000000000001
 20
205.0000000000001
 40
8.99999999999998
  0
CIRCLE
  8
0
  6
CONTINUOUS
 62
     7
 10
60.99999999999998
 20
205.0000000000001
 40
8.99999999999998
  0
CIRCLE
  8
0
  6
CONTINUOUS
 62
     7
 10
105.0
 20
205.0
 40
3.179999999999988
  0
CIRCLE
  8
0
  6
CONTINUOUS
 62
     7
 10
105.0
 20
205.0
 40
2.98000000000001
  0
CIRCLE
  8
0
  6
CONTINUOUS
 62
     7
 10
105.0
 20
205.0
 40
1.299999999999996
  0
POLYLINE
  8
0
  6
CONTINUOUS
 62
     7
 66
     1
  0
VERTEX
  8
0
  6
CONTINUOUS
 62
     7
 10
153.2806534472259
 20
150.1754430878194
  0
VERTEX
  8
0
  6
CONTINUOUS
 62
     7
 10
153.3968771787758
 20
150.1868772621384
  0
VERTEX
  8
0
  6
CONTINUOUS
 62
     7
 10
153.5085635025044
 20
150.2207472323498
  0
VERTEX
  8
0
  6
CONTINUOUS
 62
     7
 10
153.6114873449937
 20
150.275771703609
  0
VERTEX
  8
0
  6
CONTINUOUS
 62
     7
 10
153.7017551159057
 20
150.3498691101245
  0
SEQEND
  8
0
  6
CONTINUOUS
 62
     7
  0
POLYLINE
  8
0
  6
CONTINUOUS
 62
     7
 66
     1
  0
VERTEX
  8
0
  6
CONTINUOUS
 62
     7
 10
159.8245569121806
 20
253.280653447226
  0
VERTEX
  8
0
  6
CONTINUOUS
 62
     7
 10
159.8131227378616
 20
253.3968771787759
  0
VERTEX
  8
0
  6
CONTINUOUS
 62
     7
 10
159.7792527676502
 20
253.5085635025044
  0
VERTEX
  8
0
  6
CONTINUOUS
 62
     7
 10
159.724228296391
 20
253.6114873449938
  0
VERTEX
  8
0
  6
CONTINUOUS
 62
     7
 10
159.6501308898755
 20
253.7017551159057
  0
SEQEND
  8
0
  6
CONTINUOUS
 62
     7
  0
LINE
  8
0
  6
CONTINUOUS
 62
     7
 10
153.7017551159057
 20
259.6501308898755
 11
159.6501308898755
 21
253.7017551159057
  0
POLYLINE
  8
0
  6
CONTINUOUS
 62
     7
 66
     1
  0
VERTEX
  8
0
  6
CONTINUOUS
 62
     7
 10
153.7017551159057
 20
259.6501308898756
  0
VERTEX
  8
0
  6
CONTINUOUS
 62
     7
 10
153.6114873449937
 20
259.724228296391
  0
VERTEX
  8
0
  6
CONTINUOUS
 62
     7
 10
153.5085635025044
 20
259.7792527676502
  0
VERTEX
  8
0
  6
CONTINUOUS
 62
     7
 10
153.3968771787759
 20
259.8131227378616
  0
VERTEX
  8
0
  6
CONTINUOUS
 62
     7
 10
153.280653447226
 20
259.8245569121806
  0
SEQEND
  8
0
  6
CONTINUOUS
 62
     7
  0
LINE
  8
0
  6
CONTINUOUS
 62
     7
 10
153.280653447226
 20
259.8245569121806
 11
56.71934655277401
 21
259.8245569121806
  0
POLYLINE
  8
0
  6
CONTINUOUS
 62
     7
 66
     1
  0
VERTEX
  8
0
  6
CONTINUOUS
 62
     7
 10
56.71934655277401
 20
259.8245569121806
  0
VERTEX
  8
0
  6
CONTINUOUS
 62
     7
 10
56.60312282122415
 20
259.8131227378616
  0
VERTEX
  8
0
  6
CONTINUOUS
 62
     7
 10
56.49143649749558
 20
259.7792527676502
  0
VERTEX
  8
0
  6
CONTINUOUS
 62
     7
 10
56.38851265500625
 20
259.724228296391
  0
VERTEX
  8
0
  6
CONTINUOUS
 62
     7
 10
56.2982448840943
 20
259.6501308898755
  0
SEQEND
  8
0
  6
CONTINUOUS
 62
     7
  0
LINE
  8
0
  6
CONTINUOUS
 62
     7
 10
56.2982448840943
 20
259.6501308898755
 11
50.34986911012451
 21
253.7017551159057
  0
POLYLINE
  8
0
  6
CONTINUOUS
 62
     7
 66
     1
  0
VERTEX
  8
0
  6
CONTINUOUS
 62
     7
 10
50.34986911012451
 20
253.7017551159058
  0
VERTEX
  8
0
  6
CONTINUOUS
 62
     7
 10
50.27577170360902
 20
253.6114873449938
  0
VERTEX
  8
0
  6
CONTINUOUS
 62
     7
 10
50.22074723234982
 20
253.5085635025045
  0
VERTEX
  8
0
  6
CONTINUOUS
 62
     7
 10
50.18687726213842
 20
253.3968771787759
  0
VERTEX
  8
0
  6
CONTINUOUS
 62
     7
 10
50.17544308781942
 20
253.280653447226
  0
SEQEND
  8
0
  6
CONTINUOUS
 62
     7
  0
LINE
  8
0
  6
CONTINUOUS
 62
     7
 10
50.17544308781942
 20
253.2806534472261
 11
50.17544308781942
 21
156.719346552774
  0
POLYLINE
  8
0
  6
CONTINUOUS
 62
     7
 66
     1
  0
VERTEX
  8
0
  6
CONTINUOUS
 62
     7
 10
50.17544308781942
 20
156.719346552774
  0
VERTEX
  8
0
  6
CONTINUOUS
 62
     7
 10
50.18687726213842
 20
156.6031228212242
  0
VERTEX
  8
0
  6
CONTINUOUS
 62
     7
 10
50.22074723234982
 20
156.4914364974956
  0
VERTEX
  8
0
  6
CONTINUOUS
 62
     7
 10
50.27577170360902
 20
156.3885126550063
  0
VERTEX
  8
0
  6
CONTINUOUS
 62
     7
 10
50.34986911012449
 20
156.2982448840943
  0
SEQEND
  8
0
  6
CONTINUOUS
 62
     7
  0
LINE
  8
0
  6
CONTINUOUS
 62
     7
 10
56.29824488409429
 20
150.3498691101245
 11
50.34986911012451
 21
156.2982448840943
  0
POLYLINE
  8
0
  6
CONTINUOUS
 62
     7
 66
     1
  0
VERTEX
  8
0
  6
CONTINUOUS
 62
     7
 10
56.2982448840943
 20
150.3498691101246
  0
VERTEX
  8
0
  6
CONTINUOUS
 62
     7
 10
56.38851265500623
 20
150.275771703609
  0
VERTEX
  8
0
  6
CONTINUOUS
 62
     7
 10
56.49143649749557
 20
150.2207472323499
  0
VERTEX
  8
0
  6
CONTINUOUS
 62
     7
 10
56.60312282122414
 20
150.1868772621384
  0
VERTEX
  8
0
  6
CONTINUOUS
 62
     7
 10
56.719346552774
 20
150.1754430878194
  0
SEQEND
  8
0
  6
CONTINUOUS
 62
     7
  0
LINE
  8
0
  6
CONTINUOUS
 62
     7
 10
56.71934655277401
 20
150.1754430878194
 11
153.280653447226
 21
150.1754430878194
  0
LINE
  8
0
  6
CONTINUOUS
 62
     7
 10
153.7017551159057
 20
150.3498691101245
 11
159.6501308898755
 21
156.2982448840943
  0
POLYLINE
  8
0
  6
CONTINUOUS
 62
     7
 66
     1
  0
VERTEX
  8
0
  6
CONTINUOUS
 62
     7
 10
159.6501308898755
 20
156.2982448840943
  0
VERTEX
  8
0
  6
CONTINUOUS
 62
     7
 10
159.724228296391
 20
156.3885126550063
  0
VERTEX
  8
0
  6
CONTINUOUS
 62
     7
 10
159.7792527676502
 20
156.4914364974956
  0
VERTEX
  8
0
  6
CONTINUOUS
 62
     7
 10
159.8131227378616
 20
156.6031228212242
  0
VERTEX
  8
0
  6
CONTINUOUS
 62
     7
 10
159.8245569121806
 20
156.719346552774
  0
SEQEND
  8
0
  6
CONTINUOUS
 62
     7
  0
LINE
  8
0
  6
CONTINUOUS
 62
     7
 10
159.8245569121806
 20
156.719346552774
 11
159.8245569121806
 21
253.2806534472261
  0
ARC
  8
0
  6
CONTINUOUS
 62
     7
 10
49.4
 20
156.1514718625762
 40
2.000000000000002
 50
180.0
 51
225.0
  0
LINE
  8
0
  6
CONTINUOUS
 62
     7
 10
47.4
 20
156.1514718625762
 11
47.4
 21
253.8485281374239
  0
ARC
  8
0
  6
CONTINUOUS
 62
     7
 10
49.4
 20
253.8485281374239
 40
1.999999999999993
 50
135.0
 51
180.0
  0
LINE
  8
0
  6
CONTINUOUS
 62
     7
 10
47.98578643762691
 20
255.262741699797
 11
54.73725830020306
 21
262.0142135623731
  0
ARC
  8
0
  6
CONTINUOUS
 62
     7
 10
56.15147186257614
 20
260.6
 40
2.000000000000002
 50
90.0
 51
135.0
  0
LINE
  8
0
  6
CONTINUOUS
 62
     7
 10
56.15147186257615
 20
262.6
 11
153.8485281374239
 21
262.6
  0
ARC
  8
0
  6
CONTINUOUS
 62
     7
 10
153.8485281374239
 20
260.6
 40
1.999999999999993
 50
45.00000000000011
 51
90.00000000000016
  0
LINE
  8
0
  6
CONTINUOUS
 62
     7
 10
162.0142135623731
 20
255.262741699797
 11
155.262741699797
 21
262.0142135623731
  0
ARC
  8
0
  6
CONTINUOUS
 62
     7
 10
160.6
 20
253.8485281374239
 40
2.000000000000002
 50
0.0
 51
45.0
  0
LINE
  8
0
  6
CONTINUOUS
 62
     7
 10
162.6
 20
253.8485281374239
 11
162.6
 21
156.1514718625762
  0
ARC
  8
0
  6
CONTINUOUS
 62
     7
 10
160.6
 20
156.1514718625762
 40
1.999999999999993
 50
315.0
 51
0.0
  0
LINE
  8
0
  6
CONTINUOUS
 62
     7
 10
162.0142135623731
 20
154.7372583002031
 11
155.262741699797
 21
147.985786437627
  0
ARC
  8
0
  6
CONTINUOUS
 62
     7
 10
153.8485281374239
 20
149.4000000000001
 40
2.000000000000002
 50
270.0
 51
315.0
  0
LINE
  8
0
  6
CONTINUOUS
 62
     7
 10
153.8485281374239
 20
147.4000000000001
 11
56.1514718625761
 21
147.4000000000001
  0
ARC
  8
0
  6
CONTINUOUS
 62
     7
 10
56.1514718625761
 20
149.4000000000001
 40
1.999999999999998
 50
224.9999999999999
 51
269.9999999999998
  0
LINE
  8
0
  6
CONTINUOUS
 62
     7
 10
47.98578643762691
 20
154.7372583002031
 11
54.737258300203
 21
147.985786437627
  0
LINE
  8
0
  6
CONTINUOUS
 62
     7
 10
101.2131114395597
 20
151.1329228165239
 11
101.2
 21
151.259971448392
  0
POLYLINE
  8
0
  6
CONTINUOUS
 62
     7
 66
     1
  0
VERTEX
  8
0
  6
CONTINUOUS
 62
     7
 10
101.8
 20
150.5896885711877
  0
VERTEX
  8
0
  6
CONTINUOUS
 62
     7
 10
101.7708395600809
 20
150.593946078179
  0
VERTEX
  8
0
  6
CONTINUOUS
 62
     7
 10
101.7417480387536
 20
150.5996010095103
  0
VERTEX
  8
0
  6
CONTINUOUS
 62
     7
 10
101.7127941917261
 20
150.6066400001601
  0
VERTEX
  8
0
  6
CONTINUOUS
 62
     7
 10
101.6840464493227
 20
150.6150464139828
  0
VERTEX
  8
0
  6
CONTINUOUS
 62
     7
 10
101.6555727547546
 20
150.6248003830271
  0
VERTEX
  8
0
  6
CONTINUOUS
 62
     7
 10
101.6274404035408
 20
150.6358788544921
  0
VERTEX
  8
0
  6
CONTINUOUS
 62
     7
 10
101.5997158844597
 20
150.6482556452113
  0
VERTEX
  8
0
  6
CONTINUOUS
 62
     7
 10
101.5724647224083
 20
150.6619015035345
  0
VERTEX
  8
0
  6
CONTINUOUS
 62
     7
 10
101.545751323538
 20
150.676784178462
  0
VERTEX
  8
0
  6
CONTINUOUS
 62
     7
 10
101.5196388230362
 20
150.6928684958675
  0
VERTEX
  8
0
  6
CONTINUOUS
 62
     7
 10
101.4941889359102
 20
150.7101164416292
  0
VERTEX
  8
0
  6
CONTINUOUS
 62
     7
 10
101.4694618111288
 20
150.7284872514743
  0
VERTEX
  8
0
  6
CONTINUOUS
 62
     7
 10
101.4455158894637
 20
150.7479375073215
  0
VERTEX
  8
0
  6
CONTINUOUS
 62
     7
 10
101.4224077653701
 20
150.7684212398971
  0
VERTEX
  8
0
  6
CONTINUOUS
 62
     7
 10
101.4001920532288
 20
150.7898900373799
  0
VERTEX
  8
0
  6
CONTINUOUS
 62
     7
 10
101.3789212582696
 20
150.8122931598188
  0
VERTEX
  8
0
  6
CONTINUOUS
 62
     7
 10
101.3586456524789
 20
150.8355776590535
  0
VERTEX
  8
0
  6
CONTINUOUS
 62
     7
 10
101.3394131557852
 20
150.859688503853
  0
VERTEX
  8
0
  6
CONTINUOUS
 62
     7
 10
101.3212692228044
 20
150.8845687099786
  0
VERTEX
  8
0
  6
CONTINUOUS
 62
     7
 10
101.3042567354104
 20
150.9101594748615
  0
VERTEX
  8
0
  6
CONTINUOUS
 62
     7
 10
101.2884159013876
 20
150.9364003165787
  0
VERTEX
  8
0
  6
CONTINUOUS
 62
     7
 10
101.273784159402
 20
150.9632292167977
  0
VERTEX
  8
0
  6
CONTINUOUS
 62
     7
 10
101.2603960905181
 20
150.9905827673522
  0
VERTEX
  8
0
  6
CONTINUOUS
 62
     7
 10
101.2482833364691
 20
151.0183963201025
  0
VERTEX
  8
0
  6
CONTINUOUS
 62
     7
 10
101.2374745248736
 20
151.0466041397275
  0
VERTEX
  8
0
  6
CONTINUOUS
 62
     7
 10
101.2279952015764
 20
151.0751395590842
  0
VERTEX
  8
0
  6
CONTINUOUS
 62
     7
 10
101.219867770273
 20
151.1039351367718
  0
VERTEX
  8
0
  6
CONTINUOUS
 62
     7
 10
101.2131114395597
 20
151.1329228165239
  0
SEQEND
  8
0
  6
CONTINUOUS
 62
     7
  0
POLYLINE
  8
0
  6
CONTINUOUS
 62
     7
 66
     1
  0
VERTEX
  8
0
  6
CONTINUOUS
 62
     7
 10
108.2
 20
150.5896885711877
  0
VERTEX
  8
0
  6
CONTINUOUS
 62
     7
 10
108.2291604399191
 20
150.593946078179
  0
VERTEX
  8
0
  6
CONTINUOUS
 62
     7
 10
108.2582519612464
 20
150.5996010095103
  0
VERTEX
  8
0
  6
CONTINUOUS
 62
     7
 10
108.2872058082739
 20
150.6066400001601
  0
VERTEX
  8
0
  6
CONTINUOUS
 62
     7
 10
108.3159535506773
 20
150.6150464139828
  0
VERTEX
  8
0
  6
CONTINUOUS
 62
     7
 10
108.3444272452454
 20
150.6248003830271
  0
VERTEX
  8
0
  6
CONTINUOUS
 62
     7
 10
108.3725595964592
 20
150.6358788544921
  0
VERTEX
  8
0
  6
CONTINUOUS
 62
     7
 10
108.4002841155403
 20
150.6482556452113
  0
VERTEX
  8
0
  6
CONTINUOUS
 62
     7
 10
108.4275352775918
 20
150.6619015035345
  0
VERTEX
  8
0
  6
CONTINUOUS
 62
     7
 10
108.454248676462
 20
150.676784178462
  0
VERTEX
  8
0
  6
CONTINUOUS
 62
     7
 10
108.4803611769638
 20
150.6928684958675
  0
VERTEX
  8
0
  6
CONTINUOUS
 62
     7
 10
108.5058110640898
 20
150.7101164416292
  0
VERTEX
  8
0
  6
CONTINUOUS
 62
     7
 10
108.5305381888713
 20
150.7284872514743
  0
VERTEX
  8
0
  6
CONTINUOUS
 62
     7
 10
108.5544841105363
 20
150.7479375073215
  0
VERTEX
  8
0
  6
CONTINUOUS
 62
     7
 10
108.5775922346299
 20
150.7684212398971
  0
VERTEX
  8
0
  6
CONTINUOUS
 62
     7
 10
108.5998079467712
 20
150.7898900373799
  0
VERTEX
  8
0
  6
CONTINUOUS
 62
     7
 10
108.6210787417304
 20
150.8122931598188
  0
VERTEX
  8
0
  6
CONTINUOUS
 62
     7
 10
108.6413543475211
 20
150.8355776590535
  0
VERTEX
  8
0
  6
CONTINUOUS
 62
     7
 10
108.6605868442148
 20
150.859688503853
  0
VERTEX
  8
0
  6
CONTINUOUS
 62
     7
 10
108.6787307771956
 20
150.8845687099786
  0
VERTEX
  8
0
  6
CONTINUOUS
 62
     7
 10
108.6957432645896
 20
150.9101594748615
  0
VERTEX
  8
0
  6
CONTINUOUS
 62
     7
 10
108.7115840986124
 20
150.9364003165787
  0
VERTEX
  8
0
  6
CONTINUOUS
 62
     7
 10
108.726215840598
 20
150.9632292167977
  0
VERTEX
  8
0
  6
CONTINUOUS
 62
     7
 10
108.7396039094819
 20
150.9905827673522
  0
VERTEX
  8
0
  6
CONTINUOUS
 62
     7
 10
108.7517166635309
 20
151.0183963201025
  0
VERTEX
  8
0
  6
CONTINUOUS
 62
     7
 10
108.7625254751264
 20
151.0466041397275
  0
VERTEX
  8
0
  6
CONTINUOUS
 62
     7
 10
108.7720047984236
 20
151.0751395590842
  0
VERTEX
  8
0
  6
CONTINUOUS
 62
     7
 10
108.780132229727
 20
151.1039351367718
  0
VERTEX
  8
0
  6
CONTINUOUS
 62
     7
 10
108.7868885604403
 20
151.1329228165239
  0
SEQEND
  8
0
  6
CONTINUOUS
 62
     7
  0
LINE
  8
0
  6
CONTINUOUS
 62
     7
 10
108.8
 20
151.259971448392
 11
108.7868885604403
 21
151.1329228165239
  0
POLYLINE
  8
0
  6
CONTINUOUS
 62
     7
 66
     1
  0
VERTEX
  8
0
  6
CONTINUOUS
 62
     7
 10
153.3066733756327
 20
151.3335771520034
  0
VERTEX
  8
0
  6
CONTINUOUS
 62
     7
 10
153.3319278884287
 20
151.3170182497821
  0
VERTEX
  8
0
  6
CONTINUOUS
 62
     7
 10
153.3580725500352
 20
151.3015951188374
  0
VERTEX
  8
0
  6
CONTINUOUS
 62
     7
 10
153.3850432023973
 20
151.2873456069754
  0
VERTEX
  8
0
  6
CONTINUOUS
 62
     7
 10
153.4127736605085
 20
151.2743046819834
  0
VERTEX
  8
0
  6
CONTINUOUS
 62
     7
 10
153.4411958748265
 20
151.2625043458201
  0
VERTEX
  8
0
  6
CONTINUOUS
 62
     7
 10
153.4702400982641
 20
151.2519735560841
  0
VERTEX
  8
0
  6
CONTINUOUS
 62
     7
 10
153.4998350573464
 20
151.2427381549531
  0
VERTEX
  8
0
  6
CONTINUOUS
 62
     7
 10
153.5299081271131
 20
151.2348208057676
  0
VERTEX
  8
0
  6
CONTINUOUS
 62
     7
 10
153.5603855093375
 20
151.2282409374166
  0
VERTEX
  8
0
  6
CONTINUOUS
 62
     7
 10
153.5911924136247
 20
151.2230146966594
  0
VERTEX
  8
0
  6
CONTINUOUS
 62
     7
 10
153.6222532409447
 20
151.2191549085017
  0
VERTEX
  8
0
  6
CONTINUOUS
 62
     7
 10
153.6534917691492
 20
151.2166710447244
  0
VERTEX
  8
0
  6
CONTINUOUS
 62
     7
 10
153.6848313400189
 20
151.2155692006394
  0
VERTEX
  8
0
  6
CONTINUOUS
 62
     7
 10
153.716195047379
 20
151.2158520801324
  0
VERTEX
  8
0
  6
CONTINUOUS
 62
     7
 10
153.7475059258248
 20
151.2175189890272
  0
VERTEX
  8
0
  6
CONTINUOUS
 62
     7
 10
153.7786871395919
 20
151.2205658367896
  0
VERTEX
  8
0
  6
CONTINUOUS
 62
     7
 10
153.8096621711082
 20
151.2249851465653
  0
VERTEX
  8
0
  6
CONTINUOUS
 62
     7
 10
153.8403550087654
 20
151.2307660735278
  0
VERTEX
  8
0
  6
CONTINUOUS
 62
     7
 10
153.8706903334489
 20
151.2378944314912
  0
VERTEX
  8
0
  6
CONTINUOUS
 62
     7
 10
153.9005937033678
 20
151.2463527277226
  0
VERTEX
  8
0
  6
CONTINUOUS
 62
     7
 10
153.9299917367329
 20
151.2561202058686
  0
VERTEX
  8
0
  6
CONTINUOUS
 62
     7
 10
153.9588122918322
 20
151.2671728968908
  0
VERTEX
  8
0
  6
CONTINUOUS
 62
     7
 10
153.9869846440649
 20
151.2794836778846
  0
VERTEX
  8
0
  6
CONTINUOUS
 62
     7
 10
154.0144396594964
 20
151.2930223386384
  0
VERTEX
  8
0
  6
CONTINUOUS
 62
     7
 10
154.0411099645109
 20
151.3077556557677
  0
VERTEX
  8
0
  6
CONTINUOUS
 62
     7
 10
154.0669301111433
 20
151.3236474742446
  0
VERTEX
  8
0
  6
CONTINUOUS
 62
     7
 10
154.0918367376866
 20
151.3406587961208
  0
VERTEX
  8
0
  6
CONTINUOUS
 62
     7
 10
154.1157687241792
 20
151.3587478762269
  0
SEQEND
  8
0
  6
CONTINUOUS
 62
     7
  0
POLYLINE
  8
0
  6
CONTINUOUS
 62
     7
 66
     1
  0
VERTEX
  8
0
  6
CONTINUOUS
 62
     7
 10
101.2131114395597
 20
258.8670771834762
  0
VERTEX
  8
0
  6
CONTINUOUS
 62
     7
 10
101.219867770273
 20
258.8960648632282
  0
VERTEX
  8
0
  6
CONTINUOUS
 62
     7
 10
101.2279952015764
 20
258.9248604409158
  0
VERTEX
  8
0
  6
CONTINUOUS
 62
     7
 10
101.2374745248736
 20
258.9533958602726
  0
VERTEX
  8
0
  6
CONTINUOUS
 62
     7
 10
101.2482833364691
 20
258.9816036798975
  0
VERTEX
  8
0
  6
CONTINUOUS
 62
     7
 10
101.2603960905181
 20
259.0094172326479
  0
VERTEX
  8
0
  6
CONTINUOUS
 62
     7
 10
101.2737841594019
 20
259.0367707832023
  0
VERTEX
  8
0
  6
CONTINUOUS
 62
     7
 10
101.2884159013875
 20
259.0635996834213
  0
VERTEX
  8
0
  6
CONTINUOUS
 62
     7
 10
101.3042567354104
 20
259.0898405251385
  0
VERTEX
  8
0
  6
CONTINUOUS
 62
     7
 10
101.3212692228043
 20
259.1154312900214
  0
VERTEX
  8
0
  6
CONTINUOUS
 62
     7
 10
101.3394131557852
 20
259.140311496147
  0
VERTEX
  8
0
  6
CONTINUOUS
 62
     7
 10
101.3586456524788
 20
259.1644223409465
  0
VERTEX
  8
0
  6
CONTINUOUS
 62
     7
 10
101.3789212582696
 20
259.1877068401812
  0
VERTEX
  8
0
  6
CONTINUOUS
 62
     7
 10
101.4001920532288
 20
259.2101099626202
  0
VERTEX
  8
0
  6
CONTINUOUS
 62
     7
 10
101.4224077653701
 20
259.231578760103
  0
VERTEX
  8
0
  6
CONTINUOUS
 62
     7
 10
101.4455158894637
 20
259.2520624926786
  0
VERTEX
  8
0
  6
CONTINUOUS
 62
     7
 10
101.4694618111287
 20
259.2715127485258
  0
VERTEX
  8
0
  6
CONTINUOUS
 62
     7
 10
101.4941889359102
 20
259.2898835583709
  0
VERTEX
  8
0
  6
CONTINUOUS
 62
     7
 10
101.5196388230362
 20
259.3071315041326
  0
VERTEX
  8
0
  6
CONTINUOUS
 62
     7
 10
101.545751323538
 20
259.323215821538
  0
VERTEX
  8
0
  6
CONTINUOUS
 62
     7
 10
101.5724647224082
 20
259.3380984964655
  0
VERTEX
  8
0
  6
CONTINUOUS
 62
     7
 10
101.5997158844597
 20
259.3517443547888
  0
VERTEX
  8
0
  6
CONTINUOUS
 62
     7
 10
101.6274404035408
 20
259.364121145508
  0
VERTEX
  8
0
  6
CONTINUOUS
 62
     7
 10
101.6555727547546
 20
259.375199616973
  0
VERTEX
  8
0
  6
CONTINUOUS
 62
     7
 10
101.6840464493227
 20
259.3849535860172
  0
VERTEX
  8
0
  6
CONTINUOUS
 62
     7
 10
101.712794191726
 20
259.39335999984
  0
VERTEX
  8
0
  6
CONTINUOUS
 62
     7
 10
101.7417480387536
 20
259.4003989904897
  0
VERTEX
  8
0
  6
CONTINUOUS
 62
     7
 10
101.7708395600809
 20
259.406053921821
  0
VERTEX
  8
0
  6
CONTINUOUS
 62
     7
 10
101.8
 20
259.4103114288123
  0
SEQEND
  8
0
  6
CONTINUOUS
 62
     7
  0
LINE
  8
0
  6
CONTINUOUS
 62
     7
 10
108.7868885604403
 20
258.8670771834762
 11
108.8
 21
258.740028551608
  0
POLYLINE
  8
0
  6
CONTINUOUS
 62
     7
 66
     1
  0
VERTEX
  8
0
  6
CONTINUOUS
 62
     7
 10
108.7868885604403
 20
258.8670771834762
  0
VERTEX
  8
0
  6
CONTINUOUS
 62
     7
 10
108.780132229727
 20
258.8960648632282
  0
VERTEX
  8
0
  6
CONTINUOUS
 62
     7
 10
108.7720047984236
 20
258.9248604409158
  0
VERTEX
  8
0
  6
CONTINUOUS
 62
     7
 10
108.7625254751264
 20
258.9533958602726
  0
VERTEX
  8
0
  6
CONTINUOUS
 62
     7
 10
108.7517166635309
 20
258.9816036798975
  0
VERTEX
  8
0
  6
CONTINUOUS
 62
     7
 10
108.7396039094819
 20
259.0094172326479
  0
VERTEX
  8
0
  6
CONTINUOUS
 62
     7
 10
108.7262158405981
 20
259.0367707832023
  0
VERTEX
  8
0
  6
CONTINUOUS
 62
     7
 10
108.7115840986125
 20
259.0635996834213
  0
VERTEX
  8
0
  6
CONTINUOUS
 62
     7
 10
108.6957432645896
 20
259.0898405251385
  0
VERTEX
  8
0
  6
CONTINUOUS
 62
     7
 10
108.6787307771957
 20
259.1154312900214
  0
VERTEX
  8
0
  6
CONTINUOUS
 62
     7
 10
108.6605868442148
 20
259.140311496147
  0
VERTEX
  8
0
  6
CONTINUOUS
 62
     7
 10
108.6413543475212
 20
259.1644223409465
  0
VERTEX
  8
0
  6
CONTINUOUS
 62
     7
 10
108.6210787417304
 20
259.1877068401812
  0
VERTEX
  8
0
  6
CONTINUOUS
 62
     7
 10
108.5998079467712
 20
259.2101099626202
  0
VERTEX
  8
0
  6
CONTINUOUS
 62
     7
 10
108.5775922346299
 20
259.231578760103
  0
VERTEX
  8
0
  6
CONTINUOUS
 62
     7
 10
108.5544841105363
 20
259.2520624926786
  0
VERTEX
  8
0
  6
CONTINUOUS
 62
     7
 10
108.5305381888713
 20
259.2715127485258
  0
VERTEX
  8
0
  6
CONTINUOUS
 62
     7
 10
108.5058110640898
 20
259.2898835583708
  0
VERTEX
  8
0
  6
CONTINUOUS
 62
     7
 10
108.4803611769639
 20
259.3071315041326
  0
VERTEX
  8
0
  6
CONTINUOUS
 62
     7
 10
108.454248676462
 20
259.323215821538
  0
VERTEX
  8
0
  6
CONTINUOUS
 62
     7
 10
108.4275352775918
 20
259.3380984964655
  0
VERTEX
  8
0
  6
CONTINUOUS
 62
     7
 10
108.4002841155403
 20
259.3517443547888
  0
VERTEX
  8
0
  6
CONTINUOUS
 62
     7
 10
108.3725595964592
 20
259.364121145508
  0
VERTEX
  8
0
  6
CONTINUOUS
 62
     7
 10
108.3444272452454
 20
259.375199616973
  0
VERTEX
  8
0
  6
CONTINUOUS
 62
     7
 10
108.3159535506773
 20
259.3849535860172
  0
VERTEX
  8
0
  6
CONTINUOUS
 62
     7
 10
108.287205808274
 20
259.3933599998399
  0
VERTEX
  8
0
  6
CONTINUOUS
 62
     7
 10
108.2582519612464
 20
259.4003989904897
  0
VERTEX
  8
0
  6
CONTINUOUS
 62
     7
 10
108.2291604399191
 20
259.406053921821
  0
VERTEX
  8
0
  6
CONTINUOUS
 62
     7
 10
108.2
 20
259.4103114288123
  0
SEQEND
  8
0
  6
CONTINUOUS
 62
     7
  0
LINE
  8
0
  6
CONTINUOUS
 62
     7
 10
101.2
 20
258.740028551608
 11
101.2131114395597
 21
258.8670771834762
  0
POLYLINE
  8
0
  6
CONTINUOUS
 62
     7
 66
     1
  0
VERTEX
  8
0
  6
CONTINUOUS
 62
     7
 10
56.69332662436727
 20
258.6664228479967
  0
VERTEX
  8
0
  6
CONTINUOUS
 62
     7
 10
56.66807211157129
 20
258.6829817502179
  0
VERTEX
  8
0
  6
CONTINUOUS
 62
     7
 10
56.64192744996475
 20
258.6984048811626
  0
VERTEX
  8
0
  6
CONTINUOUS
 62
     7
 10
56.61495679760267
 20
258.7126543930246
  0
VERTEX
  8
0
  6
CONTINUOUS
 62
     7
 10
56.58722633949148
 20
258.7256953180166
  0
VERTEX
  8
0
  6
CONTINUOUS
 62
     7
 10
56.55880412517354
 20
258.73749565418
  0
VERTEX
  8
0
  6
CONTINUOUS
 62
     7
 10
56.5297599017359
 20
258.7480264439159
  0
VERTEX
  8
0
  6
CONTINUOUS
 62
     7
 10
56.50016494265355
 20
258.7572618450469
  0
VERTEX
  8
0
  6
CONTINUOUS
 62
     7
 10
56.47009187288684
 20
258.7651791942324
  0
VERTEX
  8
0
  6
CONTINUOUS
 62
     7
 10
56.43961449066244
 20
258.7717590625834
  0
VERTEX
  8
0
  6
CONTINUOUS
 62
     7
 10
56.40880758637525
 20
258.7769853033407
  0
VERTEX
  8
0
  6
CONTINUOUS
 62
     7
 10
56.37774675905533
 20
258.7808450914983
  0
VERTEX
  8
0
  6
CONTINUOUS
 62
     7
 10
56.34650823085074
 20
258.7833289552756
  0
VERTEX
  8
0
  6
CONTINUOUS
 62
     7
 10
56.31516865998107
 20
258.7844307993606
  0
VERTEX
  8
0
  6
CONTINUOUS
 62
     7
 10
56.28380495262098
 20
258.7841479198676
  0
VERTEX
  8
0
  6
CONTINUOUS
 62
     7
 10
56.25249407417515
 20
258.7824810109729
  0
VERTEX
  8
0
  6
CONTINUOUS
 62
     7
 10
56.2213128604081
 20
258.7794341632105
  0
VERTEX
  8
0
  6
CONTINUOUS
 62
     7
 10
56.19033782889183
 20
258.7750148534348
  0
VERTEX
  8
0
  6
CONTINUOUS
 62
     7
 10
56.15964499123461
 20
258.7692339264722
  0
VERTEX
  8
0
  6
CONTINUOUS
 62
     7
 10
56.12930966655113
 20
258.7621055685088
  0
VERTEX
  8
0
  6
CONTINUOUS
 62
     7
 10
56.09940629663217
 20
258.7536472722775
  0
VERTEX
  8
0
  6
CONTINUOUS
 62
     7
 10
56.07000826326713
 20
258.7438797941314
  0
VERTEX
  8
0
  6
CONTINUOUS
 62
     7
 10
56.04118770816779
 20
258.7328271031093
  0
VERTEX
  8
0
  6
CONTINUOUS
 62
     7
 10
56.01301535593508
 20
258.7205163221154
  0
VERTEX
  8
0
  6
CONTINUOUS
 62
     7
 10
55.98556034050355
 20
258.7069776613617
  0
VERTEX
  8
0
  6
CONTINUOUS
 62
     7
 10
55.95889003548912
 20
258.6922443442324
  0
VERTEX
  8
0
  6
CONTINUOUS
 62
     7
 10
55.93306988885676
 20
258.6763525257554
  0
VERTEX
  8
0
  6
CONTINUOUS
 62
     7
 10
55.90816326231341
 20
258.6593412038793
  0
VERTEX
  8
0
  6
CONTINUOUS
 62
     7
 10
55.88423127582078
 20
258.6412521237731
  0
SEQEND
  8
0
  6
CONTINUOUS
 62
     7
  0
POLYLINE
  8
0
  6
CONTINUOUS
 62
     7
 66
     1
  0
VERTEX
  8
0
  6
CONTINUOUS
 62
     7
 10
153.3066733756327
 20
258.6664228479967
  0
VERTEX
  8
0
  6
CONTINUOUS
 62
     7
 10
153.3319278884287
 20
258.6829817502179
  0
VERTEX
  8
0
  6
CONTINUOUS
 62
     7
 10
153.3580725500352
 20
258.6984048811626
  0
VERTEX
  8
0
  6
CONTINUOUS
 62
     7
 10
153.3850432023973
 20
258.7126543930246
  0
VERTEX
  8
0
  6
CONTINUOUS
 62
     7
 10
153.4127736605085
 20
258.7256953180167
  0
VERTEX
  8
0
  6
CONTINUOUS
 62
     7
 10
153.4411958748265
 20
258.73749565418
  0
VERTEX
  8
0
  6
CONTINUOUS
 62
     7
 10
153.4702400982641
 20
258.7480264439159
  0
VERTEX
  8
0
  6
CONTINUOUS
 62
     7
 10
153.4998350573464
 20
258.757261845047
  0
VERTEX
  8
0
  6
CONTINUOUS
 62
     7
 10
153.5299081271131
 20
258.7651791942324
  0
VERTEX
  8
0
  6
CONTINUOUS
 62
     7
 10
153.5603855093375
 20
258.7717590625834
  0
VERTEX
  8
0
  6
CONTINUOUS
 62
     7
 10
153.5911924136247
 20
258.7769853033407
  0
VERTEX
  8
0
  6
CONTINUOUS
 62
     7
 10
153.6222532409446
 20
258.7808450914983
  0
VERTEX
  8
0
  6
CONTINUOUS
 62
     7
 10
153.6534917691492
 20
258.7833289552757
  0
VERTEX
  8
0
  6
CONTINUOUS
 62
     7
 10
153.6848313400189
 20
258.7844307993606
  0
VERTEX
  8
0
  6
CONTINUOUS
 62
     7
 10
153.716195047379
 20
258.7841479198677
  0
VERTEX
  8
0
  6
CONTINUOUS
 62
     7
 10
153.7475059258248
 20
258.7824810109729
  0
VERTEX
  8
0
  6
CONTINUOUS
 62
     7
 10
153.7786871395919
 20
258.7794341632105
  0
VERTEX
  8
0
  6
CONTINUOUS
 62
     7
 10
153.8096621711081
 20
258.7750148534348
  0
VERTEX
  8
0
  6
CONTINUOUS
 62
     7
 10
153.8403550087654
 20
258.7692339264722
  0
VERTEX
  8
0
  6
CONTINUOUS
 62
     7
 10
153.8706903334489
 20
258.7621055685088
  0
VERTEX
  8
0
  6
CONTINUOUS
 62
     7
 10
153.9005937033678
 20
258.7536472722775
  0
VERTEX
  8
0
  6
CONTINUOUS
 62
     7
 10
153.9299917367329
 20
258.7438797941314
  0
VERTEX
  8
0
  6
CONTINUOUS
 62
     7
 10
153.9588122918322
 20
258.7328271031093
  0
VERTEX
  8
0
  6
CONTINUOUS
 62
     7
 10
153.9869846440649
 20
258.7205163221154
  0
VERTEX
  8
0
  6
CONTINUOUS
 62
     7
 10
154.0144396594964
 20
258.7069776613617
  0
VERTEX
  8
0
  6
CONTINUOUS
 62
     7
 10
154.0411099645109
 20
258.6922443442324
  0
VERTEX
  8
0
  6
CONTINUOUS
 62
     7
 10
154.0669301111432
 20
258.6763525257554
  0
VERTEX
  8
0
  6
CONTINUOUS
 62
     7
 10
154.0918367376865
 20
258.6593412038793
  0
VERTEX
  8
0
  6
CONTINUOUS
 62
     7
 10
154.1157687241792
 20
258.6412521237731
  0
SEQEND
  8
0
  6
CONTINUOUS
 62
     7
  0
POLYLINE
  8
0
  6
CONTINUOUS
 62
     7
 66
     1
  0
VERTEX
  8
0
  6
CONTINUOUS
 62
     7
 10
158.6412521237731
 20
155.8842312758208
  0
VERTEX
  8
0
  6
CONTINUOUS
 62
     7
 10
158.6593412038793
 20
155.9081632623135
  0
VERTEX
  8
0
  6
CONTINUOUS
 62
     7
 10
158.6763525257554
 20
155.9330698888568
  0
VERTEX
  8
0
  6
CONTINUOUS
 62
     7
 10
158.6922443442324
 20
155.9588900354892
  0
VERTEX
  8
0
  6
CONTINUOUS
 62
     7
 10
158.7069776613617
 20
155.9855603405036
  0
VERTEX
  8
0
  6
CONTINUOUS
 62
     7
 10
158.7205163221155
 20
156.0130153559352
  0
VERTEX
  8
0
  6
CONTINUOUS
 62
     7
 10
158.7328271031093
 20
156.0411877081679
  0
VERTEX
  8
0
  6
CONTINUOUS
 62
     7
 10
158.7438797941315
 20
156.0700082632672
  0
VERTEX
  8
0
  6
CONTINUOUS
 62
     7
 10
158.7536472722775
 20
156.0994062966322
  0
VERTEX
  8
0
  6
CONTINUOUS
 62
     7
 10
158.7621055685089
 20
156.1293096665512
  0
VERTEX
  8
0
  6
CONTINUOUS
 62
     7
 10
158.7692339264722
 20
156.1596449912347
  0
VERTEX
  8
0
  6
CONTINUOUS
 62
     7
 10
158.7750148534348
 20
156.1903378288919
  0
VERTEX
  8
0
  6
CONTINUOUS
 62
     7
 10
158.7794341632105
 20
156.2213128604081
  0
VERTEX
  8
0
  6
CONTINUOUS
 62
     7
 10
158.7824810109729
 20
156.2524940741752
  0
VERTEX
  8
0
  6
CONTINUOUS
 62
     7
 10
158.7841479198677
 20
156.283804952621
  0
VERTEX
  8
0
  6
CONTINUOUS
 62
     7
 10
158.7844307993606
 20
156.3151686599811
  0
VERTEX
  8
0
  6
CONTINUOUS
 62
     7
 10
158.7833289552757
 20
156.3465082308508
  0
VERTEX
  8
0
  6
CONTINUOUS
 62
     7
 10
158.7808450914984
 20
156.3777467590554
  0
VERTEX
  8
0
  6
CONTINUOUS
 62
     7
 10
158.7769853033407
 20
156.4088075863753
  0
VERTEX
  8
0
  6
CONTINUOUS
 62
     7
 10
158.7717590625834
 20
156.4396144906625
  0
VERTEX
  8
0
  6
CONTINUOUS
 62
     7
 10
158.7651791942324
 20
156.4700918728869
  0
VERTEX
  8
0
  6
CONTINUOUS
 62
     7
 10
158.757261845047
 20
156.5001649426536
  0
VERTEX
  8
0
  6
CONTINUOUS
 62
     7
 10
158.7480264439159
 20
156.529759901736
  0
VERTEX
  8
0
  6
CONTINUOUS
 62
     7
 10
158.73749565418
 20
156.5588041251736
  0
VERTEX
  8
0
  6
CONTINUOUS
 62
     7
 10
158.7256953180167
 20
156.5872263394915
  0
VERTEX
  8
0
  6
CONTINUOUS
 62
     7
 10
158.7126543930247
 20
156.6149567976027
  0
VERTEX
  8
0
  6
CONTINUOUS
 62
     7
 10
158.6984048811626
 20
156.6419274499648
  0
VERTEX
  8
0
  6
CONTINUOUS
 62
     7
 10
158.682981750218
 20
156.6680721115713
  0
VERTEX
  8
0
  6
CONTINUOUS
 62
     7
 10
158.6664228479967
 20
156.6933266243674
  0
SEQEND
  8
0
  6
CONTINUOUS
 62
     7
  0
POLYLINE
  8
0
  6
CONTINUOUS
 62
     7
 66
     1
  0
VERTEX
  8
0
  6
CONTINUOUS
 62
     7
 10
51.33357715200329
 20
156.6933266243673
  0
VERTEX
  8
0
  6
CONTINUOUS
 62
     7
 10
51.31701824978204
 20
156.6680721115713
  0
VERTEX
  8
0
  6
CONTINUOUS
 62
     7
 10
51.30159511883735
 20
156.6419274499648
  0
VERTEX
  8
0
  6
CONTINUOUS
 62
     7
 10
51.28734560697534
 20
156.6149567976027
  0
VERTEX
  8
0
  6
CONTINUOUS
 62
     7
 10
51.27430468198332
 20
156.5872263394915
  0
VERTEX
  8
0
  6
CONTINUOUS
 62
     7
 10
51.26250434582002
 20
156.5588041251736
  0
VERTEX
  8
0
  6
CONTINUOUS
 62
     7
 10
51.25197355608407
 20
156.529759901736
  0
VERTEX
  8
0
  6
CONTINUOUS
 62
     7
 10
51.24273815495303
 20
156.5001649426536
  0
VERTEX
  8
0
  6
CONTINUOUS
 62
     7
 10
51.23482080576759
 20
156.4700918728869
  0
VERTEX
  8
0
  6
CONTINUOUS
 62
     7
 10
51.2282409374166
 20
156.4396144906625
  0
VERTEX
  8
0
  6
CONTINUOUS
 62
     7
 10
51.22301469665929
 20
156.4088075863753
  0
VERTEX
  8
0
  6
CONTINUOUS
 62
     7
 10
51.21915490850163
 20
156.3777467590554
  0
VERTEX
  8
0
  6
CONTINUOUS
 62
     7
 10
51.21667104472434
 20
156.3465082308508
  0
VERTEX
  8
0
  6
CONTINUOUS
 62
     7
 10
51.21556920063938
 20
156.3151686599811
  0
VERTEX
  8
0
  6
CONTINUOUS
 62
     7
 10
51.21585208013232
 20
156.283804952621
  0
VERTEX
  8
0
  6
CONTINUOUS
 62
     7
 10
51.21751898902709
 20
156.2524940741752
  0
VERTEX
  8
0
  6
CONTINUOUS
 62
     7
 10
51.22056583678951
 20
156.2213128604081
  0
VERTEX
  8
0
  6
CONTINUOUS
 62
     7
 10
51.22498514656525
 20
156.1903378288919
  0
VERTEX
  8
0
  6
CONTINUOUS
 62
     7
 10
51.23076607352777
 20
156.1596449912347
  0
VERTEX
  8
0
  6
CONTINUOUS
 62
     7
 10
51.23789443149117
 20
156.1293096665512
  0
VERTEX
  8
0
  6
CONTINUOUS
 62
     7
 10
51.24635272772256
 20
156.0994062966322
  0
VERTEX
  8
0
  6
CONTINUOUS
 62
     7
 10
51.25612020586856
 20
156.0700082632672
  0
VERTEX
  8
0
  6
CONTINUOUS
 62
     7
 10
51.2671728968907
 20
156.0411877081679
  0
VERTEX
  8
0
  6
CONTINUOUS
 62
     7
 10
51.27948367788454
 20
156.0130153559352
  0
VERTEX
  8
0
  6
CONTINUOUS
 62
     7
 10
51.29302233863829
 20
155.9855603405036
  0
VERTEX
  8
0
  6
CONTINUOUS
 62
     7
 10
51.30775565576761
 20
155.9588900354892
  0
VERTEX
  8
0
  6
CONTINUOUS
 62
     7
 10
51.32364747424455
 20
155.9330698888568
  0
VERTEX
  8
0
  6
CONTINUOUS
 62
     7
 10
51.34065879612074
 20
155.9081632623135
  0
VERTEX
  8
0
  6
CONTINUOUS
 62
     7
 10
51.35874787622688
 20
155.8842312758208
  0
SEQEND
  8
0
  6
CONTINUOUS
 62
     7
  0
POLYLINE
  8
0
  6
CONTINUOUS
 62
     7
 66
     1
  0
VERTEX
  8
0
  6
CONTINUOUS
 62
     7
 10
55.88423127582083
 20
151.358747876227
  0
VERTEX
  8
0
  6
CONTINUOUS
 62
     7
 10
55.90816326231346
 20
151.3406587961208
  0
VERTEX
  8
0
  6
CONTINUOUS
 62
     7
 10
55.93306988885679
 20
151.3236474742446
  0
VERTEX
  8
0
  6
CONTINUOUS
 62
     7
 10
55.95889003548918
 20
151.3077556557677
  0
VERTEX
  8
0
  6
CONTINUOUS
 62
     7
 10
55.98556034050359
 20
151.2930223386384
  0
VERTEX
  8
0
  6
CONTINUOUS
 62
     7
 10
56.01301535593513
 20
151.2794836778846
  0
VERTEX
  8
0
  6
CONTINUOUS
 62
     7
 10
56.04118770816784
 20
151.2671728968908
  0
VERTEX
  8
0
  6
CONTINUOUS
 62
     7
 10
56.07000826326719
 20
151.2561202058687
  0
VERTEX
  8
0
  6
CONTINUOUS
 62
     7
 10
56.09940629663222
 20
151.2463527277226
  0
VERTEX
  8
0
  6
CONTINUOUS
 62
     7
 10
56.12930966655118
 20
151.2378944314913
  0
VERTEX
  8
0
  6
CONTINUOUS
 62
     7
 10
56.15964499123466
 20
151.2307660735278
  0
VERTEX
  8
0
  6
CONTINUOUS
 62
     7
 10
56.19033782889189
 20
151.2249851465653
  0
VERTEX
  8
0
  6
CONTINUOUS
 62
     7
 10
56.22131286040815
 20
151.2205658367896
  0
VERTEX
  8
0
  6
CONTINUOUS
 62
     7
 10
56.25249407417521
 20
151.2175189890272
  0
VERTEX
  8
0
  6
CONTINUOUS
 62
     7
 10
56.28380495262103
 20
151.2158520801324
  0
VERTEX
  8
0
  6
CONTINUOUS
 62
     7
 10
56.31516865998115
 20
151.2155692006395
  0
VERTEX
  8
0
  6
CONTINUOUS
 62
     7
 10
56.34650823085081
 20
151.2166710447244
  0
VERTEX
  8
0
  6
CONTINUOUS
 62
     7
 10
56.3777467590554
 20
151.2191549085017
  0
VERTEX
  8
0
  6
CONTINUOUS
 62
     7
 10
56.40880758637531
 20
151.2230146966594
  0
VERTEX
  8
0
  6
CONTINUOUS
 62
     7
 10
56.43961449066251
 20
151.2282409374167
  0
VERTEX
  8
0
  6
CONTINUOUS
 62
     7
 10
56.4700918728869
 20
151.2348208057677
  0
VERTEX
  8
0
  6
CONTINUOUS
 62
     7
 10
56.50016494265362
 20
151.2427381549531
  0
VERTEX
  8
0
  6
CONTINUOUS
 62
     7
 10
56.52975990173598
 20
151.2519735560842
  0
VERTEX
  8
0
  6
CONTINUOUS
 62
     7
 10
56.55880412517361
 20
151.2625043458201
  0
VERTEX
  8
0
  6
CONTINUOUS
 62
     7
 10
56.58722633949156
 20
151.2743046819834
  0
VERTEX
  8
0
  6
CONTINUOUS
 62
     7
 10
56.61495679760274
 20
151.2873456069755
  0
VERTEX
  8
0
  6
CONTINUOUS
 62
     7
 10
56.64192744996483
 20
151.3015951188374
  0
VERTEX
  8
0
  6
CONTINUOUS
 62
     7
 10
56.66807211157138
 20
151.3170182497822
  0
VERTEX
  8
0
  6
CONTINUOUS
 62
     7
 10
56.69332662436735
 20
151.3335771520034
  0
SEQEND
  8
0
  6
CONTINUOUS
 62
     7
  0
POLYLINE
  8
0
  6
CONTINUOUS
 62
     7
 66
     1
  0
VERTEX
  8
0
  6
CONTINUOUS
 62
     7
 10
51.33357715200333
 20
253.3066733756327
  0
VERTEX
  8
0
  6
CONTINUOUS
 62
     7
 10
51.31701824978207
 20
253.3319278884287
  0
VERTEX
  8
0
  6
CONTINUOUS
 62
     7
 10
51.30159511883739
 20
253.3580725500352
  0
VERTEX
  8
0
  6
CONTINUOUS
 62
     7
 10
51.28734560697538
 20
253.3850432023973
  0
VERTEX
  8
0
  6
CONTINUOUS
 62
     7
 10
51.27430468198335
 20
253.4127736605085
  0
VERTEX
  8
0
  6
CONTINUOUS
 62
     7
 10
51.26250434582004
 20
253.4411958748264
  0
VERTEX
  8
0
  6
CONTINUOUS
 62
     7
 10
51.2519735560841
 20
253.4702400982641
  0
VERTEX
  8
0
  6
CONTINUOUS
 62
     7
 10
51.24273815495305
 20
253.4998350573464
  0
VERTEX
  8
0
  6
CONTINUOUS
 62
     7
 10
51.2348208057676
 20
253.5299081271132
  0
VERTEX
  8
0
  6
CONTINUOUS
 62
     7
 10
51.22824093741662
 20
253.5603855093376
  0
VERTEX
  8
0
  6
CONTINUOUS
 62
     7
 10
51.2230146966593
 20
253.5911924136248
  0
VERTEX
  8
0
  6
CONTINUOUS
 62
     7
 10
51.21915490850165
 20
253.6222532409447
  0
VERTEX
  8
0
  6
CONTINUOUS
 62
     7
 10
51.21667104472436
 20
253.6534917691492
  0
VERTEX
  8
0
  6
CONTINUOUS
 62
     7
 10
51.2155692006394
 20
253.6848313400189
  0
VERTEX
  8
0
  6
CONTINUOUS
 62
     7
 10
51.21585208013232
 20
253.716195047379
  0
VERTEX
  8
0
  6
CONTINUOUS
 62
     7
 10
51.2175189890271
 20
253.7475059258248
  0
VERTEX
  8
0
  6
CONTINUOUS
 62
     7
 10
51.22056583678952
 20
253.7786871395919
  0
VERTEX
  8
0
  6
CONTINUOUS
 62
     7
 10
51.22498514656525
 20
253.8096621711082
  0
VERTEX
  8
0
  6
CONTINUOUS
 62
     7
 10
51.23076607352777
 20
253.8403550087654
  0
VERTEX
  8
0
  6
CONTINUOUS
 62
     7
 10
51.23789443149118
 20
253.8706903334489
  0
VERTEX
  8
0
  6
CONTINUOUS
 62
     7
 10
51.24635272772256
 20
253.9005937033678
  0
VERTEX
  8
0
  6
CONTINUOUS
 62
     7
 10
51.25612020586858
 20
253.9299917367329
  0
VERTEX
  8
0
  6
CONTINUOUS
 62
     7
 10
51.2671728968907
 20
253.9588122918322
  0
VERTEX
  8
0
  6
CONTINUOUS
 62
     7
 10
51.27948367788454
 20
253.9869846440649
  0
VERTEX
  8
0
  6
CONTINUOUS
 62
     7
 10
51.29302233863829
 20
254.0144396594964
  0
VERTEX
  8
0
  6
CONTINUOUS
 62
     7
 10
51.30775565576761
 20
254.0411099645109
  0
VERTEX
  8
0
  6
CONTINUOUS
 62
     7
 10
51.32364747424455
 20
254.0669301111432
  0
VERTEX
  8
0
  6
CONTINUOUS
 62
     7
 10
51.34065879612074
 20
254.0918367376866
  0
VERTEX
  8
0
  6
CONTINUOUS
 62
     7
 10
51.35874787622689
 20
254.1157687241792
  0
SEQEND
  8
0
  6
CONTINUOUS
 62
     7
  0
POLYLINE
  8
0
  6
CONTINUOUS
 62
     7
 66
     1
  0
VERTEX
  8
0
  6
CONTINUOUS
 62
     7
 10
158.6412521237731
 20
254.1157687241792
  0
VERTEX
  8
0
  6
CONTINUOUS
 62
     7
 10
158.6593412038792
 20
254.0918367376866
  0
VERTEX
  8
0
  6
CONTINUOUS
 62
     7
 10
158.6763525257554
 20
254.0669301111432
  0
VERTEX
  8
0
  6
CONTINUOUS
 62
     7
 10
158.6922443442323
 20
254.0411099645109
  0
VERTEX
  8
0
  6
CONTINUOUS
 62
     7
 10
158.7069776613616
 20
254.0144396594964
  0
VERTEX
  8
0
  6
CONTINUOUS
 62
     7
 10
158.7205163221154
 20
253.9869846440649
  0
VERTEX
  8
0
  6
CONTINUOUS
 62
     7
 10
158.7328271031092
 20
253.9588122918322
  0
VERTEX
  8
0
  6
CONTINUOUS
 62
     7
 10
158.7438797941313
 20
253.9299917367329
  0
VERTEX
  8
0
  6
CONTINUOUS
 62
     7
 10
158.7536472722774
 20
253.9005937033678
  0
VERTEX
  8
0
  6
CONTINUOUS
 62
     7
 10
158.7621055685087
 20
253.8706903334489
  0
VERTEX
  8
0
  6
CONTINUOUS
 62
     7
 10
158.7692339264721
 20
253.8403550087654
  0
VERTEX
  8
0
  6
CONTINUOUS
 62
     7
 10
158.7750148534346
 20
253.8096621711082
  0
VERTEX
  8
0
  6
CONTINUOUS
 62
     7
 10
158.7794341632104
 20
253.7786871395919
  0
VERTEX
  8
0
  6
CONTINUOUS
 62
     7
 10
158.7824810109728
 20
253.7475059258248
  0
VERTEX
  8
0
  6
CONTINUOUS
 62
     7
 10
158.7841479198676
 20
253.716195047379
  0
VERTEX
  8
0
  6
CONTINUOUS
 62
     7
 10
158.7844307993605
 20
253.6848313400189
  0
VERTEX
  8
0
  6
CONTINUOUS
 62
     7
 10
158.7833289552756
 20
253.6534917691492
  0
VERTEX
  8
0
  6
CONTINUOUS
 62
     7
 10
158.7808450914983
 20
253.6222532409447
  0
VERTEX
  8
0
  6
CONTINUOUS
 62
     7
 10
158.7769853033406
 20
253.5911924136247
  0
VERTEX
  8
0
  6
CONTINUOUS
 62
     7
 10
158.7717590625833
 20
253.5603855093376
  0
VERTEX
  8
0
  6
CONTINUOUS
 62
     7
 10
158.7651791942323
 20
253.5299081271132
  0
VERTEX
  8
0
  6
CONTINUOUS
 62
     7
 10
158.7572618450469
 20
253.4998350573464
  0
VERTEX
  8
0
  6
CONTINUOUS
 62
     7
 10
158.7480264439158
 20
253.4702400982641
  0
VERTEX
  8
0
  6
CONTINUOUS
 62
     7
 10
158.7374956541798
 20
253.4411958748264
  0
VERTEX
  8
0
  6
CONTINUOUS
 62
     7
 10
158.7256953180166
 20
253.4127736605085
  0
VERTEX
  8
0
  6
CONTINUOUS
 62
     7
 10
158.7126543930245
 20
253.3850432023974
  0
VERTEX
  8
0
  6
CONTINUOUS
 62
     7
 10
158.6984048811625
 20
253.3580725500352
  0
VERTEX
  8
0
  6
CONTINUOUS
 62
     7
 10
158.6829817502178
 20
253.3319278884287
  0
VERTEX
  8
0
  6
CONTINUOUS
 62
     7
 10
158.6664228479966
 20
253.3066733756327
  0
SEQEND
  8
0
  6
CONTINUOUS
 62
     7
  0
LINE
  8
0
  6
CONTINUOUS
 62
     7
 10
153.3066733756327
 20
151.3335771520034
 11
153.2209580192925
 21
151.4050304436898
  0
LINE
  8
0
  6
CONTINUOUS
 62
     7
 10
56.69332662436729
 20
258.6664228479967
 11
56.77904198070752
 21
258.5949695563103
  0
LINE
  8
0
  6
CONTINUOUS
 62
     7
 10
158.5949695563103
 20
156.7790419807075
 11
158.6664228479967
 21
156.6933266243673
  0
LINE
  8
0
  6
CONTINUOUS
 62
     7
 10
153.2209580192925
 20
258.5949695563102
 11
153.3066733756327
 21
258.6664228479967
  0
LINE
  8
0
  6
CONTINUOUS
 62
     7
 10
51.33357715200331
 20
156.6933266243673
 11
51.40503044368972
 21
156.7790419807075
  0
LINE
  8
0
  6
CONTINUOUS
 62
     7
 10
51.4050304436898
 20
253.2209580192925
 11
51.33357715200334
 21
253.3066733756327
  0
LINE
  8
0
  6
CONTINUOUS
 62
     7
 10
56.77904198070752
 20
151.4050304436898
 11
56.69332662436734
 21
151.3335771520034
  0
LINE
  8
0
  6
CONTINUOUS
 62
     7
 10
158.6664228479966
 20
253.3066733756327
 11
158.5949695563102
 21
253.2209580192925
  0
LINE
  8
0
  6
CONTINUOUS
 62
     7
 10
99.15147186257622
 20
193.7774603255585
 11
56.77904198070756
 21
151.4050304436898
  0
ARC
  8
0
  6
CONTINUOUS
 62
     7
 10
100.0
 20
192.9289321881346
 40
1.2
 50
0.0
 51
134.9999999999972
  0
LINE
  8
0
  6
CONTINUOUS
 62
     7
 10
101.2
 20
151.259971448392
 11
101.2
 21
192.9289321881346
  0
LINE
  8
0
  6
CONTINUOUS
 62
     7
 10
108.8
 20
192.9289321881346
 11
108.8
 21
151.259971448392
  0
ARC
  8
0
  6
CONTINUOUS
 62
     7
 10
110.0
 20
192.9289321881346
 40
1.2
 50
44.99999999999953
 51
180.0
  0
LINE
  8
0
  6
CONTINUOUS
 62
     7
 10
153.2209580192925
 20
151.4050304436898
 11
110.8485281374238
 21
193.7774603255584
  0
LINE
  8
0
  6
CONTINUOUS
 62
     7
 10
101.2
 20
217.0710678118655
 11
101.2
 21
258.740028551608
  0
ARC
  8
0
  6
CONTINUOUS
 62
     7
 10
100.0
 20
217.0710678118655
 40
1.2
 50
225.0000000000028
 51
0.0
  0
LINE
  8
0
  6
CONTINUOUS
 62
     7
 10
56.77904198070756
 20
258.5949695563103
 11
99.15147186257622
 21
216.2225396744416
  0
LINE
  8
0
  6
CONTINUOUS
 62
     7
 10
110.8485281374238
 20
216.2225396744417
 11
153.2209580192925
 21
258.5949695563103
  0
ARC
  8
0
  6
CONTINUOUS
 62
     7
 10
110.0
 20
217.0710678118655
 40
1.2
 50
180.0
 51
315.0000000000009
  0
LINE
  8
0
  6
CONTINUOUS
 62
     7
 10
108.8
 20
258.740028551608
 11
108.8
 21
217.0710678118655
  0
LINE
  8
0
  6
CONTINUOUS
 62
     7
 10
111.1051007266496
 20
204.2689108103681
 11
158.5949695563102
 21
156.7790419807075
  0
LINE
  8
0
  6
CONTINUOUS
 62
     7
 10
110.9380969839434
 20
204.591182844191
 11
111.1051007266497
 21
204.2689108103682
  0
LINE
  8
0
  6
CONTINUOUS
 62
     7
 10
110.9380969839434
 20
204.591182844191
 11
110.9380969839434
 21
205.4088171558091
  0
LINE
  8
0
  6
CONTINUOUS
 62
     7
 10
111.1051007266496
 20
205.7310891896319
 11
110.9380969839434
 21
205.4088171558091
  0
LINE
  8
0
  6
CONTINUOUS
 62
     7
 10
158.5949695563101
 20
253.2209580192926
 11
111.1051007266496
 21
205.731089189632
  0
LINE
  8
0
  6
CONTINUOUS
 62
     7
 10
98.89489927335045
 20
205.731089189632
 11
51.40503044368987
 21
253.2209580192926
  0
LINE
  8
0
  6
CONTINUOUS
 62
     7
 10
99.06190301605665
 20
205.4088171558091
 11
98.89489927335038
 21
205.7310891896319
  0
LINE
  8
0
  6
CONTINUOUS
 62
     7
 10
99.06190301605665
 20
205.4088171558091
 11
99.06190301605665
 21
204.591182844191
  0
LINE
  8
0
  6
CONTINUOUS
 62
     7
 10
98.89489927335036
 20
204.2689108103682
 11
99.06190301605665
 21
204.591182844191
  0
LINE
  8
0
  6
CONTINUOUS
 62
     7
 10
51.40503044368978
 20
156.7790419807075
 11
98.89489927335043
 21
204.2689108103681
  0
LINE
  8
0
  6
CONTINUOUS
 62
     7
 10
53.81444977984567
 20
256.1855502201411
 11
54.20960485435269
 21
255.7903951456341
  0
LINE
  8
0
  6
CONTINUOUS
 62
     7
 10
156.1855502201448
 20
256.1855502201507
 11
155.7903951456378
 21
255.7903951456437
  0
LINE
  8
0
  6
CONTINUOUS
 62
     7
 10
155.7903951456388
 20
154.2096048543574
 11
156.1855502201458
 21
153.8144497798504
  0
LINE
  8
0
  6
CONTINUOUS
 62
     7
 10
54.20960485435962
 20
154.209604854359
 11
53.81444977985262
 21
153.814449779852
  0
ARC
  8
0
  6
CONTINUOUS
 62
     7
 10
105.0
 20
205.0
 40
4.100000000000001
 50
225.0000000000025
 51
314.9999999999976
  0
LINE
  8
0
  6
CONTINUOUS
 62
     7
 10
107.8991378028647
 20
202.1008621971351
 11
155.7903951456406
 21
154.2096048543592
  0
LINE
  8
0
  6
CONTINUOUS
 62
     7
 10
102.1008621971353
 20
202.1008621971351
 11
54.20960485435944
 21
154.2096048543592
  0
ARC
  8
0
  6
CONTINUOUS
 62
     7
 10
105.0
 20
205.0
 40
4.100000000000001
 50
45.00000000000247
 51
134.9999999999976
  0
LINE
  8
0
  6
CONTINUOUS
 62
     7
 10
102.1008621971353
 20
207.899137802865
 11
54.20960485435944
 21
255.7903951456409
  0
LINE
  8
0
  6
CONTINUOUS
 62
     7
 10
107.8991378028647
 20
207.899137802865
 11
155.7903951456406
 21
255.7903951456409
  0
ARC
  8
0
  6
CONTINUOUS
 62
     7
 10
105.0
 20
205.0
 40
4.100000000000001
 50
314.9999999999975
 51
45.00000000000244
  0
ARC
  8
0
  6
CONTINUOUS
 62
     7
 10
105.0
 20
205.0
 40
4.100000000000001
 50
134.9999999999975
 51
225.0000000000025
  0
CIRCLE
  8
0
  6
CONTINUOUS
 62
     7
 10
105.0
 20
205.0
 40
3.200000000000008
  0
ENDBLK
  8
0
  0
BLOCK
  8
0
  2
D_FRAME_VIEW_3449
 70
     0
 10
0.0
 20
0.0
  0
TEXT
  8
0
  6
CONTINUOUS
 62
     8
 10
98.77248655745905
 20
74.68103587774876
 40
3.0
  1
断面 A-A
  0
ENDBLK
  8
0
  0
ENDSEC
  0
SECTION
  2
ENTITIES
  0
INSERT
  8
0
  6
CONTINUOUS
 62
     7
  2
D_FRAME_VIEW_4529
 10
0.0
 20
0.0
 30
0.0
  0
INSERT
  8
0
  6
CONTINUOUS
 62
     7
  2
D_FRAME_VIEW_1280
 10
0.0
 20
0.0
 30
0.0
  0
INSERT
  8
0
  6
CONTINUOUS
 62
     7
  2
D_FRAME_VIEW_3449
 10
0.0
 20
0.0
 30
0.0
  0
TEXT
  8
0
  6
CONTINUOUS
 62
     7
 10
154.7423808222642
 20
41.81590909090903
 40
5.0
  1
ＡＭＳ－１
  0
ENDSEC
  0
EOF
