  0
SECTION
  2
HEADER
  9
$ACADVER
  1
AC1006
  9
$DWGCODEPAGE
  3
ansi_932
  9
$INSBASE
 10
0.0
 20
0.0
 30
0.0
  9
$EXTMIN
 10
0.0
 20
0.0
  9
$EXTMAX
 10
194.9750125
 20
269.9999875
  9
$LIMMIN
 10
0.0
 20
0.0
  9
$LIMMAX
 10
12.0
 20
9.0
  9
$ORTHOMODE
 70
     0
  9
$REGENMODE
 70
     1
  9
$FILLMODE
 70
     1
  9
$QTEXTMODE
 70
     0
  9
$MIRRTEXT
 70
     1
  9
$DRAGMODE
 70
     2
  9
$LTSCALE
 40
1.0
  9
$OSMODE
 70
    37
  9
$ATTMODE
 70
     1
  9
$TEXTSIZE
 40
0.2
  9
$TRACEWID
 40
0.05
  9
$TEXTSTYLE
  7
STANDARD
  9
$CLAYER
  8
0
  9
$CELTYPE
  6
BYLAYER
  9
$CECOLOR
 62
   256
  9
$DIMSCALE
 40
1.0
  9
$DIMASZ
 40
3.0
  9
$DIMEXO
 40
0.0625
  9
$DIMDLI
 40
0.38
  9
$DIMRND
 40
0.0
  9
$DIMDLE
 40
0.0
  9
$DIMEXE
 40
1.5
  9
$DIMTP
 40
0.0
  9
$DIMTM
 40
0.0
  9
$DIMTXT
 40
3.0
  9
$DIMCEN
 40
0.09
  9
$DIMTSZ
 40
0.0
  9
$DIMTOL
 70
     0
  9
$DIMLIM
 70
     0
  9
$DIMTIH
 70
     1
  9
$DIMTOH
 70
     1
  9
$DIMSE1
 70
     0
  9
$DIMSE2
 70
     0
  9
$DIMTAD
 70
     1
  9
$DIMZIN
 70
     0
  9
$DIMBLK
  1

  9
$DIMASO
 70
     1
  9
$DIMSHO
 70
     1
  9
$DIMPOST
  1

  9
$DIMAPOST
  1

  9
$DIMALT
 70
     0
  9
$DIMALTD
 70
     2
  9
$DIMALTF
 40
25.4
  9
$DIMLFAC
 40
1.0
  9
$DIMTOFL
 70
     0
  9
$DIMTVP
 40
0.0
  9
$DIMTIX
 70
     0
  9
$DIMSOXD
 70
     0
  9
$DIMSAH
 70
     0
  9
$DIMBLK1
  1

  9
$DIMBLK2
  1

  9
$LUNITS
 70
     2
  9
$LUPREC
 70
     4
  9
$SKETCHINC
 40
0.1
  9
$FILLETRAD
 40
0.5
  9
$AUNITS
 70
     0
  9
$AUPREC
 70
     0
  9
$MENU
  1
.
  9
$ELEVATION
 40
0.0
  9
$THICKNESS
 40
0.0
  9
$LIMCHECK
 70
     0
  9
$CHAMFERA
 40
0.0
  9
$CHAMFERB
 40
0.0
  9
$SKPOLY
 70
     0
  9
$TDCREATE
 40
2458985.384810671
  9
$TDUPDATE
 40
2458985.384810857
  9
$TDINDWG
 40
0.0000000116
  9
$TDUSRTIMER
 40
0.0000000116
  9
$USRTIMER
 70
     1
  9
$ANGBASE
 50
0.0
  9
$ANGDIR
 70
     0
  9
$PDMODE
 70
     0
  9
$PDSIZE
 40
0.0
  9
$PLINEWID
 40
0.0
  9
$COORDS
 70
     1
  9
$SPLFRAME
 70
     0
  9
$SPLINETYPE
 70
     6
  9
$SPLINESEGS
 70
     8
  9
$ATTDIA
 70
     0
  9
$ATTREQ
 70
     1
  9
$HANDLING
 70
     1
  9
$HANDSEED
  5
3E6
  9
$SURFTAB1
 70
     6
  9
$SURFTAB2
 70
     6
  9
$SURFTYPE
 70
     6
  9
$SURFU
 70
     6
  9
$SURFV
 70
     6
  9
$UCSNAME
  2

  9
$UCSORG
 10
0.0
 20
0.0
 30
0.0
  9
$UCSXDIR
 10
1.0
 20
0.0
 30
0.0
  9
$UCSYDIR
 10
0.0
 20
1.0
 30
0.0
  9
$USERI1
 70
     0
  9
$USERI2
 70
     0
  9
$USERI3
 70
     0
  9
$USERI4
 70
     0
  9
$USERI5
 70
     0
  9
$USERR1
 40
0.0
  9
$USERR2
 40
0.0
  9
$USERR3
 40
0.0
  9
$USERR4
 40
0.0
  9
$USERR5
 40
0.0
  9
$WORLDVIEW
 70
     1
  0
ENDSEC
  0
SECTION
  2
TABLES
  0
TABLE
  2
VPORT
 70
     1
  0
VPORT
  2
*ACTIVE
 70
     0
 10
0.0
 20
0.0
 11
1.0
 21
1.0
 12
97.48750625000001
 22
134.99999375
 13
0.0
 23
0.0
 14
0.5
 24
0.5
 15
0.5
 25
0.5
 16
0.0
 26
0.0
 36
1.0
 17
0.0
 27
0.0
 37
0.0
 40
269.9999875
 41
1.6
 42
50.0
 43
0.0
 44
0.0
 50
0.0
 51
0.0
 71
     0
 72
   100
 73
     1
 74
     3
 75
     0
 76
     0
 77
     0
 78
     0
  0
ENDTAB
  0
TABLE
  2
LTYPE
 70
     1
  0
LTYPE
  2
CONTINUOUS
 70
     0
  3
Solid line
 72
    65
 73
     0
 40
0.0
  0
ENDTAB
  0
TABLE
  2
LAYER
 70
     1
  0
LAYER
  2
0
 70
     0
 62
     7
  6
CONTINUOUS
  0
ENDTAB
  0
TABLE
  2
STYLE
 70
     2
  0
STYLE
  2
STANDARD
 70
     0
 40
0.0
 41
1.0
 50
0.0
 71
     0
 42
0.2
  3
txt
  4

  0
STYLE
  2
ＭＳ_ゴシック
 70
     0
 40
0.0
 41
1.0
 50
0.0
 71
     0
 42
0.2
  3
ＭＳ ゴシック.shx
  4

  0
ENDTAB
  0
TABLE
  2
VIEW
 70
     0
  0
ENDTAB
  0
TABLE
  2
UCS
 70
     0
  0
ENDTAB
  0
ENDSEC
  0
SECTION
  2
BLOCKS
  0
BLOCK
  8
0
  2
D_FRAME_DRAWING_17
 70
     0
 10
0.0
 20
0.0
 30
0.0
  0
LINE
  5
71
  8
0
  6
CONTINUOUS
 62
     7
 10
0.0
 20
0.0
 30
0.0
 11
210.0
 21
0.0
 31
0.0
  0
LINE
  5
72
  8
0
  6
CONTINUOUS
 62
     7
 10
210.0
 20
0.0
 30
0.0
 11
210.0
 21
297.0
 31
0.0
  0
LINE
  5
73
  8
0
  6
CONTINUOUS
 62
     7
 10
210.0
 20
297.0
 30
0.0
 11
0.0
 21
297.0
 31
0.0
  0
LINE
  5
74
  8
0
  6
CONTINUOUS
 62
     7
 10
0.0
 20
297.0
 30
0.0
 11
0.0
 21
0.0
 31
0.0
  0
ENDBLK
  8
0
  0
BLOCK
  8
0
  2
D_FRAME_VIEW_10059
 70
     0
 10
0.0
 20
0.0
 30
0.0
  0
LINE
  5
78
  8
0
  6
CONTINUOUS
 62
     7
 10
184.9750125
 20
268.0999875
 30
0.0
 11
194.9750125
 21
268.0999875
 31
0.0
  0
LINE
  5
79
  8
0
  6
CONTINUOUS
 62
     7
 10
184.9750125
 20
268.0999875
 30
0.0
 11
184.9750125
 21
269.9999875
 31
0.0
  0
LINE
  5
7A
  8
0
  6
CONTINUOUS
 62
     7
 10
184.9750125
 20
269.9999875
 30
0.0
 11
194.9750125
 21
269.9999875
 31
0.0
  0
LINE
  5
7B
  8
0
  6
CONTINUOUS
 62
     7
 10
194.9750125
 20
268.0999875
 30
0.0
 11
194.9750125
 21
269.9999875
 31
0.0
  0
LINE
  5
7C
  8
0
  6
CONTINUOUS
 62
     7
 10
184.9750125
 20
117.9999875
 30
0.0
 11
194.9750125
 21
117.9999875
 31
0.0
  0
LINE
  5
7D
  8
0
  6
CONTINUOUS
 62
     7
 10
184.9750125
 20
119.8999875
 30
0.0
 11
194.9750125
 21
119.8999875
 31
0.0
  0
LINE
  5
7E
  8
0
  6
CONTINUOUS
 62
     7
 10
194.9750125
 20
117.9999875
 30
0.0
 11
194.9750125
 21
119.8999875
 31
0.0
  0
LINE
  5
7F
  8
0
  6
CONTINUOUS
 62
     7
 10
184.9750125
 20
117.9999875
 30
0.0
 11
184.9750125
 21
119.8999875
 31
0.0
  0
LINE
  5
80
  8
0
  6
CONTINUOUS
 62
     7
 10
184.9750125
 20
113.9999875
 30
0.0
 11
194.9750125
 21
113.9999875
 31
0.0
  0
LINE
  5
81
  8
0
  6
CONTINUOUS
 62
     7
 10
194.9750125
 20
112.0999875
 30
0.0
 11
194.9750125
 21
113.9999875
 31
0.0
  0
LINE
  5
82
  8
0
  6
CONTINUOUS
 62
     7
 10
184.9750125
 20
112.0999875
 30
0.0
 11
184.9750125
 21
113.9999875
 31
0.0
  0
LINE
  5
83
  8
0
  6
CONTINUOUS
 62
     7
 10
184.9750125
 20
112.0999875
 30
0.0
 11
194.9750125
 21
112.0999875
 31
0.0
  0
LINE
  5
84
  8
0
  6
CONTINUOUS
 62
     7
 10
184.9750125
 20
41.89998749999999
 30
0.0
 11
194.9750125
 21
41.89998749999999
 31
0.0
  0
LINE
  5
85
  8
0
  6
CONTINUOUS
 62
     7
 10
194.9750125
 20
39.99998750000002
 30
0.0
 11
194.9750125
 21
41.89998749999999
 31
0.0
  0
LINE
  5
86
  8
0
  6
CONTINUOUS
 62
     7
 10
184.9750125
 20
39.99998750000002
 30
0.0
 11
184.9750125
 21
41.89998749999999
 31
0.0
  0
LINE
  5
87
  8
0
  6
CONTINUOUS
 62
     7
 10
184.9750125
 20
39.99998750000002
 30
0.0
 11
194.9750125
 21
39.99998750000002
 31
0.0
  0
LINE
  5
88
  8
0
  6
CONTINUOUS
 62
     7
 10
184.9750125
 20
190.0999875
 30
0.0
 11
194.9750125
 21
190.0999875
 31
0.0
  0
LINE
  5
89
  8
0
  6
CONTINUOUS
 62
     7
 10
184.9750125
 20
191.9999875
 30
0.0
 11
194.9750125
 21
191.9999875
 31
0.0
  0
LINE
  5
8A
  8
0
  6
CONTINUOUS
 62
     7
 10
194.9750125
 20
190.0999875
 30
0.0
 11
194.9750125
 21
191.9999875
 31
0.0
  0
LINE
  5
8B
  8
0
  6
CONTINUOUS
 62
     7
 10
184.9750125
 20
190.0999875
 30
0.0
 11
184.9750125
 21
191.9999875
 31
0.0
  0
LINE
  5
8C
  8
0
  6
CONTINUOUS
 62
     7
 10
184.9750125
 20
195.9999875
 30
0.0
 11
194.9750125
 21
195.9999875
 31
0.0
  0
LINE
  5
8D
  8
0
  6
CONTINUOUS
 62
     7
 10
184.9750125
 20
197.8999875
 30
0.0
 11
194.9750125
 21
197.8999875
 31
0.0
  0
LINE
  5
8E
  8
0
  6
CONTINUOUS
 62
     7
 10
184.9750125
 20
195.9999875
 30
0.0
 11
184.9750125
 21
197.8999875
 31
0.0
  0
LINE
  5
8F
  8
0
  6
CONTINUOUS
 62
     7
 10
194.9750125
 20
195.9999875
 30
0.0
 11
194.9750125
 21
197.8999875
 31
0.0
  0
LINE
  5
90
  8
0
  6
CONTINUOUS
 62
     7
 10
184.9750125
 20
61.99998750000002
 30
0.0
 11
187.9750125
 21
61.99998750000002
 31
0.0
  0
LINE
  5
91
  8
0
  6
CONTINUOUS
 62
     7
 10
187.9750125
 20
51.99998750000001
 30
0.0
 11
184.9750125
 21
51.99998750000001
 31
0.0
  0
LINE
  5
92
  8
0
  6
CONTINUOUS
 62
     7
 10
187.9750125
 20
61.99998750000002
 30
0.0
 11
187.9750125
 21
51.99998750000001
 31
0.0
  0
LINE
  5
93
  8
0
  6
CONTINUOUS
 62
     7
 10
184.9750125
 20
51.99998750000001
 30
0.0
 11
184.9750125
 21
61.99998750000002
 31
0.0
  0
LINE
  5
94
  8
0
  6
CONTINUOUS
 62
     7
 10
184.9750125
 20
257.9999875
 30
0.0
 11
187.9750125
 21
257.9999875
 31
0.0
  0
LINE
  5
95
  8
0
  6
CONTINUOUS
 62
     7
 10
187.9750125
 20
257.9999875
 30
0.0
 11
187.9750125
 21
247.9999875
 31
0.0
  0
LINE
  5
96
  8
0
  6
CONTINUOUS
 62
     7
 10
187.9750125
 20
247.9999875
 30
0.0
 11
184.9750125
 21
247.9999875
 31
0.0
  0
LINE
  5
97
  8
0
  6
CONTINUOUS
 62
     7
 10
184.9750125
 20
247.9999875
 30
0.0
 11
184.9750125
 21
257.9999875
 31
0.0
  0
LINE
  5
98
  8
0
  6
CONTINUOUS
 62
     7
 10
184.9750125
 20
45.99998749999997
 30
0.0
 11
194.9750125
 21
45.99998749999997
 31
0.0
  0
LINE
  5
99
  8
0
  6
CONTINUOUS
 62
     7
 10
194.9750125
 20
44.0999875
 30
0.0
 11
189.9750125
 21
44.0999875
 31
0.0
  0
LINE
  5
9A
  8
0
  6
CONTINUOUS
 62
     7
 10
189.9750125
 20
44.0999875
 30
0.0
 11
189.9750125
 21
41.89998750000002
 31
0.0
  0
LINE
  5
9B
  8
0
  6
CONTINUOUS
 62
     7
 10
194.9750125
 20
44.0999875
 30
0.0
 11
194.9750125
 21
45.99998749999997
 31
0.0
  0
LINE
  5
9C
  8
0
  6
CONTINUOUS
 62
     7
 10
184.9750125
 20
41.89998750000004
 30
0.0
 11
184.9750125
 21
45.99998749999997
 31
0.0
  0
LINE
  5
9D
  8
0
  6
CONTINUOUS
 62
     7
 10
194.9750125
 20
261.3668419549813
 30
0.0
 11
194.9750125
 21
244.6331330450187
 31
0.0
  0
LINE
  5
9E
  8
0
  6
CONTINUOUS
 62
     7
 10
194.9750125
 20
65.36684195498128
 30
0.0
 11
194.9750125
 21
48.63313304501875
 31
0.0
  0
LINE
  5
9F
  8
0
  6
CONTINUOUS
 62
     7
 10
184.9750125
 20
77.49998750000002
 30
0.0
 11
194.9750125
 21
77.49998750000002
 31
0.0
  0
LINE
  5
A0
  8
0
  6
CONTINUOUS
 62
     7
 10
194.9750125
 20
77.49998750000002
 30
0.0
 11
194.9750125
 21
112.0999875
 31
0.0
  0
LINE
  5
A1
  8
0
  6
CONTINUOUS
 62
     7
 10
184.9750125
 20
77.49998750000002
 30
0.0
 11
184.9750125
 21
112.0999875
 31
0.0
  0
LINE
  5
A2
  8
0
  6
CONTINUOUS
 62
     7
 10
184.9750125
 20
116.4999875
 30
0.0
 11
194.9750125
 21
116.4999875
 31
0.0
  0
LINE
  5
A3
  8
0
  6
CONTINUOUS
 62
     7
 10
194.9750125
 20
116.4999875
 30
0.0
 11
194.9750125
 21
117.9999875
 31
0.0
  0
LINE
  5
A4
  8
0
  6
CONTINUOUS
 62
     7
 10
184.9750125
 20
116.4999875
 30
0.0
 11
184.9750125
 21
117.9999875
 31
0.0
  0
LINE
  5
A5
  8
0
  6
CONTINUOUS
 62
     7
 10
184.9750125
 20
232.4999875
 30
0.0
 11
194.9750125
 21
232.4999875
 31
0.0
  0
LINE
  5
A6
  8
0
  6
CONTINUOUS
 62
     7
 10
194.9750125
 20
197.8999875
 30
0.0
 11
194.9750125
 21
232.4999875
 31
0.0
  0
LINE
  5
A7
  8
0
  6
CONTINUOUS
 62
     7
 10
184.9750125
 20
197.8999875
 30
0.0
 11
184.9750125
 21
232.4999875
 31
0.0
  0
LINE
  5
A8
  8
0
  6
CONTINUOUS
 62
     7
 10
184.9750125
 20
115.9999875
 30
0.0
 11
194.9750125
 21
115.9999875
 31
0.0
  0
LINE
  5
A9
  8
0
  6
CONTINUOUS
 62
     7
 10
194.9750125
 20
115.9999875
 30
0.0
 11
194.9750125
 21
116.4999875
 31
0.0
  0
LINE
  5
AA
  8
0
  6
CONTINUOUS
 62
     7
 10
184.9750125
 20
116.4999875
 30
0.0
 11
184.9750125
 21
115.9999875
 31
0.0
  0
LINE
  5
AB
  8
0
  6
CONTINUOUS
 62
     7
 10
184.9750125
 20
155.4999875
 30
0.0
 11
194.9750125
 21
155.4999875
 31
0.0
  0
LINE
  5
AC
  8
0
  6
CONTINUOUS
 62
     7
 10
194.9750125
 20
155.4999875
 30
0.0
 11
194.9750125
 21
190.0999875
 31
0.0
  0
LINE
  5
AD
  8
0
  6
CONTINUOUS
 62
     7
 10
184.9750125
 20
155.4999875
 30
0.0
 11
184.9750125
 21
190.0999875
 31
0.0
  0
LINE
  5
AE
  8
0
  6
CONTINUOUS
 62
     7
 10
184.9750125
 20
115.4999875
 30
0.0
 11
194.9750125
 21
115.4999875
 31
0.0
  0
LINE
  5
AF
  8
0
  6
CONTINUOUS
 62
     7
 10
194.9750125
 20
113.9999875
 30
0.0
 11
194.9750125
 21
115.4999875
 31
0.0
  0
LINE
  5
B0
  8
0
  6
CONTINUOUS
 62
     7
 10
184.9750125
 20
113.9999875
 30
0.0
 11
184.9750125
 21
115.4999875
 31
0.0
  0
LINE
  5
B1
  8
0
  6
CONTINUOUS
 62
     7
 10
184.9750125
 20
154.4999875
 30
0.0
 11
194.9750125
 21
154.4999875
 31
0.0
  0
LINE
  5
B2
  8
0
  6
CONTINUOUS
 62
     7
 10
194.9750125
 20
119.8999875
 30
0.0
 11
194.9750125
 21
154.4999875
 31
0.0
  0
LINE
  5
B3
  8
0
  6
CONTINUOUS
 62
     7
 10
184.9750125
 20
119.8999875
 30
0.0
 11
184.9750125
 21
154.4999875
 31
0.0
  0
LINE
  5
B4
  8
0
  6
CONTINUOUS
 62
     7
 10
194.9750125
 20
45.99998750000003
 30
0.0
 11
194.9750125
 21
48.63313304501875
 31
0.0
  0
LINE
  5
B5
  8
0
  6
CONTINUOUS
 62
     7
 10
184.9750125
 20
45.99998750000003
 30
0.0
 11
184.9750125
 21
51.99998750000001
 31
0.0
  0
LINE
  5
B6
  8
0
  6
CONTINUOUS
 62
     7
 10
184.9750125
 20
233.4999875
 30
0.0
 11
194.9750125
 21
233.4999875
 31
0.0
  0
LINE
  5
B7
  8
0
  6
CONTINUOUS
 62
     7
 10
194.9750125
 20
233.4999875
 30
0.0
 11
194.9750125
 21
244.6331330450187
 31
0.0
  0
LINE
  5
B8
  8
0
  6
CONTINUOUS
 62
     7
 10
184.9750125
 20
233.4999875
 30
0.0
 11
184.9750125
 21
247.9999875
 31
0.0
  0
LINE
  5
B9
  8
0
  6
CONTINUOUS
 62
     7
 10
184.9750125
 20
232.9999875
 30
0.0
 11
194.9750125
 21
232.9999875
 31
0.0
  0
LINE
  5
BA
  8
0
  6
CONTINUOUS
 62
     7
 10
194.9750125
 20
232.9999875
 30
0.0
 11
194.9750125
 21
233.4999875
 31
0.0
  0
LINE
  5
BB
  8
0
  6
CONTINUOUS
 62
     7
 10
184.9750125
 20
233.4999875
 30
0.0
 11
184.9750125
 21
232.9999875
 31
0.0
  0
LINE
  5
BC
  8
0
  6
CONTINUOUS
 62
     7
 10
184.9750125
 20
154.9999875
 30
0.0
 11
194.9750125
 21
154.9999875
 31
0.0
  0
LINE
  5
BD
  8
0
  6
CONTINUOUS
 62
     7
 10
194.9750125
 20
154.4999875
 30
0.0
 11
194.9750125
 21
154.9999875
 31
0.0
  0
LINE
  5
BE
  8
0
  6
CONTINUOUS
 62
     7
 10
184.9750125
 20
154.9999875
 30
0.0
 11
184.9750125
 21
154.4999875
 31
0.0
  0
LINE
  5
BF
  8
0
  6
CONTINUOUS
 62
     7
 10
194.9750125
 20
232.4999875
 30
0.0
 11
194.9750125
 21
232.9999875
 31
0.0
  0
LINE
  5
C0
  8
0
  6
CONTINUOUS
 62
     7
 10
184.9750125
 20
232.9999875
 30
0.0
 11
184.9750125
 21
232.4999875
 31
0.0
  0
LINE
  5
C1
  8
0
  6
CONTINUOUS
 62
     7
 10
184.9750125
 20
193.9999875
 30
0.0
 11
194.9750125
 21
193.9999875
 31
0.0
  0
LINE
  5
C2
  8
0
  6
CONTINUOUS
 62
     7
 10
184.9750125
 20
194.4999875
 30
0.0
 11
194.9750125
 21
194.4999875
 31
0.0
  0
LINE
  5
C3
  8
0
  6
CONTINUOUS
 62
     7
 10
194.9750125
 20
193.9999875
 30
0.0
 11
194.9750125
 21
194.4999875
 31
0.0
  0
LINE
  5
C4
  8
0
  6
CONTINUOUS
 62
     7
 10
184.9750125
 20
194.4999875
 30
0.0
 11
184.9750125
 21
193.9999875
 31
0.0
  0
LINE
  5
C5
  8
0
  6
CONTINUOUS
 62
     7
 10
184.9750125
 20
193.4999875
 30
0.0
 11
194.9750125
 21
193.4999875
 31
0.0
  0
LINE
  5
C6
  8
0
  6
CONTINUOUS
 62
     7
 10
194.9750125
 20
193.4999875
 30
0.0
 11
194.9750125
 21
193.9999875
 31
0.0
  0
LINE
  5
C7
  8
0
  6
CONTINUOUS
 62
     7
 10
184.9750125
 20
193.9999875
 30
0.0
 11
184.9750125
 21
193.4999875
 31
0.0
  0
LINE
  5
C8
  8
0
  6
CONTINUOUS
 62
     7
 10
194.9750125
 20
191.9999875
 30
0.0
 11
194.9750125
 21
193.4999875
 31
0.0
  0
LINE
  5
C9
  8
0
  6
CONTINUOUS
 62
     7
 10
184.9750125
 20
191.9999875
 30
0.0
 11
184.9750125
 21
193.4999875
 31
0.0
  0
LINE
  5
CA
  8
0
  6
CONTINUOUS
 62
     7
 10
194.9750125
 20
261.3668419549813
 30
0.0
 11
194.9750125
 21
268.0999875
 31
0.0
  0
LINE
  5
CB
  8
0
  6
CONTINUOUS
 62
     7
 10
184.9750125
 20
257.9999875
 30
0.0
 11
184.9750125
 21
268.0999875
 31
0.0
  0
LINE
  5
CC
  8
0
  6
CONTINUOUS
 62
     7
 10
184.9750125
 20
76.4999875
 30
0.0
 11
194.9750125
 21
76.4999875
 31
0.0
  0
LINE
  5
CD
  8
0
  6
CONTINUOUS
 62
     7
 10
194.9750125
 20
65.36684195498128
 30
0.0
 11
194.9750125
 21
76.4999875
 31
0.0
  0
LINE
  5
CE
  8
0
  6
CONTINUOUS
 62
     7
 10
184.9750125
 20
61.9999875
 30
0.0
 11
184.9750125
 21
76.4999875
 31
0.0
  0
LINE
  5
CF
  8
0
  6
CONTINUOUS
 62
     7
 10
194.9750125
 20
115.4999875
 30
0.0
 11
194.9750125
 21
115.9999875
 31
0.0
  0
LINE
  5
D0
  8
0
  6
CONTINUOUS
 62
     7
 10
184.9750125
 20
115.9999875
 30
0.0
 11
184.9750125
 21
115.4999875
 31
0.0
  0
LINE
  5
D1
  8
0
  6
CONTINUOUS
 62
     7
 10
184.9750125
 20
76.99998750000002
 30
0.0
 11
194.9750125
 21
76.99998750000002
 31
0.0
  0
LINE
  5
D2
  8
0
  6
CONTINUOUS
 62
     7
 10
194.9750125
 20
76.99998750000002
 30
0.0
 11
194.9750125
 21
77.49998750000002
 31
0.0
  0
LINE
  5
D3
  8
0
  6
CONTINUOUS
 62
     7
 10
184.9750125
 20
77.49998750000002
 30
0.0
 11
184.9750125
 21
76.99998750000002
 31
0.0
  0
LINE
  5
D4
  8
0
  6
CONTINUOUS
 62
     7
 10
194.9750125
 20
76.4999875
 30
0.0
 11
194.9750125
 21
76.99998750000002
 31
0.0
  0
LINE
  5
D5
  8
0
  6
CONTINUOUS
 62
     7
 10
184.9750125
 20
76.99998750000002
 30
0.0
 11
184.9750125
 21
76.4999875
 31
0.0
  0
LINE
  5
D6
  8
0
  6
CONTINUOUS
 62
     7
 10
194.9750125
 20
154.9999875
 30
0.0
 11
194.9750125
 21
155.4999875
 31
0.0
  0
LINE
  5
D7
  8
0
  6
CONTINUOUS
 62
     7
 10
184.9750125
 20
155.4999875
 30
0.0
 11
184.9750125
 21
154.9999875
 31
0.0
  0
LINE
  5
D8
  8
0
  6
CONTINUOUS
 62
     7
 10
194.9750125
 20
194.4999875
 30
0.0
 11
194.9750125
 21
195.9999875
 31
0.0
  0
LINE
  5
D9
  8
0
  6
CONTINUOUS
 62
     7
 10
184.9750125
 20
194.4999875
 30
0.0
 11
184.9750125
 21
195.9999875
 31
0.0
  0
ENDBLK
  8
0
  0
BLOCK
  8
0
  2
D_FRAME_VIEW_10162
 70
     0
 10
0.0
 20
0.0
 30
0.0
  0
LINE
  5
DE
  8
0
  6
CONTINUOUS
 62
     7
 10
49.05001249999999
 20
20.02498749999999
 30
0.0
 11
49.36445917569824
 21
26.02498749999999
 31
0.0
  0
LINE
  5
DF
  8
0
  6
CONTINUOUS
 62
     7
 10
42.9500125
 20
20.02498749999999
 30
0.0
 11
49.05001249999999
 21
20.02498749999999
 31
0.0
  0
LINE
  5
E0
  8
0
  6
CONTINUOUS
 62
     7
 10
42.9500125
 20
30.02498749999999
 30
0.0
 11
42.9500125
 21
20.02498749999999
 31
0.0
  0
LINE
  5
E1
  8
0
  6
CONTINUOUS
 62
     7
 10
42.9500125
 20
30.02498749999999
 30
0.0
 11
56.05001250000002
 21
30.02498749999999
 31
0.0
  0
LINE
  5
E2
  8
0
  6
CONTINUOUS
 62
     7
 10
56.05001250000002
 20
30.02498749999999
 30
0.0
 11
56.05001250000002
 21
20.02498749999999
 31
0.0
  0
LINE
  5
E3
  8
0
  6
CONTINUOUS
 62
     7
 10
52.25001249999999
 20
20.02498749999999
 30
0.0
 11
56.05001250000002
 21
20.02498749999999
 31
0.0
  0
LINE
  5
E4
  8
0
  6
CONTINUOUS
 62
     7
 10
51.93556582430175
 20
26.02498749999999
 30
0.0
 11
52.25001249999999
 21
20.02498749999999
 31
0.0
  0
LINE
  5
E5
  8
0
  6
CONTINUOUS
 62
     7
 10
49.36445917569824
 20
26.02498749999999
 30
0.0
 11
51.93556582430175
 21
26.02498749999999
 31
0.0
  0
LINE
  5
E6
  8
0
  6
CONTINUOUS
 62
     7
 10
118.9500125
 20
20.02498749999999
 30
0.0
 11
119.2644591756982
 21
26.02498749999999
 31
0.0
  0
LINE
  5
E7
  8
0
  6
CONTINUOUS
 62
     7
 10
112.8500125
 20
20.02498749999999
 30
0.0
 11
118.9500125
 21
20.02498749999999
 31
0.0
  0
LINE
  5
E8
  8
0
  6
CONTINUOUS
 62
     7
 10
112.8500125
 20
30.02498749999999
 30
0.0
 11
112.8500125
 21
20.02498749999999
 31
0.0
  0
LINE
  5
E9
  8
0
  6
CONTINUOUS
 62
     7
 10
112.8500125
 20
30.02498749999999
 30
0.0
 11
125.9500125
 21
30.02498749999999
 31
0.0
  0
LINE
  5
EA
  8
0
  6
CONTINUOUS
 62
     7
 10
125.9500125
 20
30.02498749999999
 30
0.0
 11
125.9500125
 21
20.02498749999999
 31
0.0
  0
LINE
  5
EB
  8
0
  6
CONTINUOUS
 62
     7
 10
122.1500125
 20
20.02498749999999
 30
0.0
 11
125.9500125
 21
20.02498749999999
 31
0.0
  0
LINE
  5
EC
  8
0
  6
CONTINUOUS
 62
     7
 10
121.8355658243018
 20
26.02498749999999
 30
0.0
 11
122.1500125
 21
20.02498749999999
 31
0.0
  0
LINE
  5
ED
  8
0
  6
CONTINUOUS
 62
     7
 10
119.2644591756982
 20
26.02498749999999
 30
0.0
 11
121.8355658243018
 21
26.02498749999999
 31
0.0
  0
LINE
  5
EE
  8
0
  6
CONTINUOUS
 62
     7
 10
72.3500125
 20
20.02498749999999
 30
0.0
 11
72.66445917569824
 21
26.02498749999999
 31
0.0
  0
LINE
  5
EF
  8
0
  6
CONTINUOUS
 62
     7
 10
66.25001250000001
 20
20.02498749999999
 30
0.0
 11
72.3500125
 21
20.02498749999999
 31
0.0
  0
LINE
  5
F0
  8
0
  6
CONTINUOUS
 62
     7
 10
66.25001250000001
 20
30.02498749999999
 30
0.0
 11
66.25001250000001
 21
20.02498749999999
 31
0.0
  0
LINE
  5
F1
  8
0
  6
CONTINUOUS
 62
     7
 10
79.3500125
 20
30.02498749999999
 30
0.0
 11
79.3500125
 21
20.02498749999999
 31
0.0
  0
LINE
  5
F2
  8
0
  6
CONTINUOUS
 62
     7
 10
75.55001249999998
 20
20.02498749999999
 30
0.0
 11
79.3500125
 21
20.02498749999999
 31
0.0
  0
LINE
  5
F3
  8
0
  6
CONTINUOUS
 62
     7
 10
75.23556582430174
 20
26.02498749999999
 30
0.0
 11
75.55001249999998
 21
20.02498749999999
 31
0.0
  0
LINE
  5
F4
  8
0
  6
CONTINUOUS
 62
     7
 10
72.66445917569824
 20
26.02498749999999
 30
0.0
 11
75.23556582430174
 21
26.02498749999999
 31
0.0
  0
LINE
  5
F5
  8
0
  6
CONTINUOUS
 62
     7
 10
66.25001250000001
 20
30.02498749999999
 30
0.0
 11
79.3500125
 21
30.02498749999999
 31
0.0
  0
LINE
  5
F6
  8
0
  6
CONTINUOUS
 62
     7
 10
95.6500125
 20
20.02498749999999
 30
0.0
 11
95.96445917569825
 21
26.02498749999999
 31
0.0
  0
LINE
  5
F7
  8
0
  6
CONTINUOUS
 62
     7
 10
89.55001250000001
 20
30.02498749999999
 30
0.0
 11
102.6500125
 21
30.02498749999999
 31
0.0
  0
LINE
  5
F8
  8
0
  6
CONTINUOUS
 62
     7
 10
102.6500125
 20
30.02498749999999
 30
0.0
 11
102.6500125
 21
20.02498749999999
 31
0.0
  0
LINE
  5
F9
  8
0
  6
CONTINUOUS
 62
     7
 10
98.8500125
 20
20.02498749999999
 30
0.0
 11
102.6500125
 21
20.02498749999999
 31
0.0
  0
LINE
  5
FA
  8
0
  6
CONTINUOUS
 62
     7
 10
98.53556582430176
 20
26.02498749999999
 30
0.0
 11
98.8500125
 21
20.02498749999999
 31
0.0
  0
LINE
  5
FB
  8
0
  6
CONTINUOUS
 62
     7
 10
95.96445917569825
 20
26.02498749999999
 30
0.0
 11
98.53556582430176
 21
26.02498749999999
 31
0.0
  0
LINE
  5
FC
  8
0
  6
CONTINUOUS
 62
     7
 10
89.55001250000001
 20
30.02498749999999
 30
0.0
 11
89.55001250000001
 21
20.02498749999999
 31
0.0
  0
LINE
  5
FD
  8
0
  6
CONTINUOUS
 62
     7
 10
89.55001250000001
 20
20.02498749999999
 30
0.0
 11
95.6500125
 21
20.02498749999999
 31
0.0
  0
LINE
  5
FE
  8
0
  6
CONTINUOUS
 62
     7
 10
25.75001249999999
 20
20.02498749999999
 30
0.0
 11
26.06445917569824
 21
26.02498749999999
 31
0.0
  0
LINE
  5
FF
  8
0
  6
CONTINUOUS
 62
     7
 10
19.6500125
 20
20.02498749999999
 30
0.0
 11
25.75001249999999
 21
20.02498749999999
 31
0.0
  0
LINE
  5
100
  8
0
  6
CONTINUOUS
 62
     7
 10
19.6500125
 20
30.02498749999999
 30
0.0
 11
32.75001250000002
 21
30.02498749999999
 31
0.0
  0
LINE
  5
101
  8
0
  6
CONTINUOUS
 62
     7
 10
32.75001250000002
 20
30.02498749999999
 30
0.0
 11
32.75001250000002
 21
20.02498749999999
 31
0.0
  0
LINE
  5
102
  8
0
  6
CONTINUOUS
 62
     7
 10
28.9500125
 20
20.02498749999999
 30
0.0
 11
32.75001250000002
 21
20.02498749999999
 31
0.0
  0
LINE
  5
103
  8
0
  6
CONTINUOUS
 62
     7
 10
28.63556582430175
 20
26.02498749999999
 30
0.0
 11
28.9500125
 21
20.02498749999999
 31
0.0
  0
LINE
  5
104
  8
0
  6
CONTINUOUS
 62
     7
 10
26.06445917569824
 20
26.02498749999999
 30
0.0
 11
28.63556582430175
 21
26.02498749999999
 31
0.0
  0
LINE
  5
105
  8
0
  6
CONTINUOUS
 62
     7
 10
19.6500125
 20
30.02498749999999
 30
0.0
 11
19.6500125
 21
20.02498749999999
 31
0.0
  0
LINE
  5
106
  8
0
  6
CONTINUOUS
 62
     7
 10
165.5500125
 20
20.02498749999999
 30
0.0
 11
165.8644591756982
 21
26.02498749999999
 31
0.0
  0
LINE
  5
107
  8
0
  6
CONTINUOUS
 62
     7
 10
172.5500125
 20
30.02498749999999
 30
0.0
 11
172.5500125
 21
20.02498749999999
 31
0.0
  0
LINE
  5
108
  8
0
  6
CONTINUOUS
 62
     7
 10
168.7500125
 20
20.02498749999999
 30
0.0
 11
172.5500125
 21
20.02498749999999
 31
0.0
  0
LINE
  5
109
  8
0
  6
CONTINUOUS
 62
     7
 10
168.4355658243017
 20
26.02498749999999
 30
0.0
 11
168.7500125
 21
20.02498749999999
 31
0.0
  0
LINE
  5
10A
  8
0
  6
CONTINUOUS
 62
     7
 10
165.8644591756982
 20
26.02498749999999
 30
0.0
 11
168.4355658243017
 21
26.02498749999999
 31
0.0
  0
LINE
  5
10B
  8
0
  6
CONTINUOUS
 62
     7
 10
159.4500125
 20
20.02498749999999
 30
0.0
 11
165.5500125
 21
20.02498749999999
 31
0.0
  0
LINE
  5
10C
  8
0
  6
CONTINUOUS
 62
     7
 10
159.4500125
 20
30.02498749999999
 30
0.0
 11
159.4500125
 21
20.02498749999999
 31
0.0
  0
LINE
  5
10D
  8
0
  6
CONTINUOUS
 62
     7
 10
159.4500125
 20
30.02498749999999
 30
0.0
 11
172.5500125
 21
30.02498749999999
 31
0.0
  0
LINE
  5
10E
  8
0
  6
CONTINUOUS
 62
     7
 10
142.2500125
 20
20.02498749999999
 30
0.0
 11
142.5644591756983
 21
26.02498749999999
 31
0.0
  0
LINE
  5
10F
  8
0
  6
CONTINUOUS
 62
     7
 10
149.2500125
 20
30.02498749999999
 30
0.0
 11
149.2500125
 21
20.02498749999999
 31
0.0
  0
LINE
  5
110
  8
0
  6
CONTINUOUS
 62
     7
 10
145.4500125
 20
20.02498749999999
 30
0.0
 11
149.2500125
 21
20.02498749999999
 31
0.0
  0
LINE
  5
111
  8
0
  6
CONTINUOUS
 62
     7
 10
145.1355658243017
 20
26.02498749999999
 30
0.0
 11
145.4500125
 21
20.02498749999999
 31
0.0
  0
LINE
  5
112
  8
0
  6
CONTINUOUS
 62
     7
 10
142.5644591756983
 20
26.02498749999999
 30
0.0
 11
145.1355658243017
 21
26.02498749999999
 31
0.0
  0
LINE
  5
113
  8
0
  6
CONTINUOUS
 62
     7
 10
136.1500125
 20
20.02498749999999
 30
0.0
 11
142.2500125
 21
20.02498749999999
 31
0.0
  0
LINE
  5
114
  8
0
  6
CONTINUOUS
 62
     7
 10
136.1500125
 20
30.02498749999999
 30
0.0
 11
149.2500125
 21
30.02498749999999
 31
0.0
  0
LINE
  5
115
  8
0
  6
CONTINUOUS
 62
     7
 10
136.1500125
 20
30.02498749999999
 30
0.0
 11
136.1500125
 21
20.02498749999999
 31
0.0
  0
LINE
  5
116
  8
0
  6
CONTINUOUS
 62
     7
 10
110.6500125
 20
20.02498749999999
 30
0.0
 11
112.8500125
 21
20.02498749999999
 31
0.0
  0
LINE
  5
117
  8
0
  6
CONTINUOUS
 62
     7
 10
110.6500125
 20
20.02498749999999
 30
0.0
 11
110.6500125
 21
30.02498749999999
 31
0.0
  0
LINE
  5
118
  8
0
  6
CONTINUOUS
 62
     7
 10
110.6500125
 20
30.02498749999999
 30
0.0
 11
112.8500125
 21
30.02498749999999
 31
0.0
  0
LINE
  5
119
  8
0
  6
CONTINUOUS
 62
     7
 10
40.7500125
 20
20.02498749999999
 30
0.0
 11
42.95001250000001
 21
20.02498749999999
 31
0.0
  0
LINE
  5
11A
  8
0
  6
CONTINUOUS
 62
     7
 10
40.7500125
 20
20.02498749999999
 30
0.0
 11
40.7500125
 21
30.02498749999999
 31
0.0
  0
LINE
  5
11B
  8
0
  6
CONTINUOUS
 62
     7
 10
40.7500125
 20
30.02498749999999
 30
0.0
 11
42.9500125
 21
30.02498749999999
 31
0.0
  0
LINE
  5
11C
  8
0
  6
CONTINUOUS
 62
     7
 10
17.4500125
 20
20.02498749999999
 30
0.0
 11
19.65001250000001
 21
20.02498749999999
 31
0.0
  0
LINE
  5
11D
  8
0
  6
CONTINUOUS
 62
     7
 10
17.4500125
 20
20.02498749999999
 30
0.0
 11
17.4500125
 21
30.02498749999999
 31
0.0
  0
LINE
  5
11E
  8
0
  6
CONTINUOUS
 62
     7
 10
17.4500125
 20
30.02498749999999
 30
0.0
 11
19.6500125
 21
30.02498749999999
 31
0.0
  0
LINE
  5
11F
  8
0
  6
CONTINUOUS
 62
     7
 10
87.3500125
 20
20.02498749999999
 30
0.0
 11
89.55001250000001
 21
20.02498749999999
 31
0.0
  0
LINE
  5
120
  8
0
  6
CONTINUOUS
 62
     7
 10
87.3500125
 20
20.02498749999999
 30
0.0
 11
87.3500125
 21
30.02498749999999
 31
0.0
  0
LINE
  5
121
  8
0
  6
CONTINUOUS
 62
     7
 10
87.3500125
 20
30.02498749999999
 30
0.0
 11
89.5500125
 21
30.02498749999999
 31
0.0
  0
LINE
  5
122
  8
0
  6
CONTINUOUS
 62
     7
 10
64.05001250000001
 20
20.02498749999999
 30
0.0
 11
66.25001250000001
 21
20.02498749999999
 31
0.0
  0
LINE
  5
123
  8
0
  6
CONTINUOUS
 62
     7
 10
64.05001250000001
 20
20.02498749999999
 30
0.0
 11
64.05001250000001
 21
30.02498749999999
 31
0.0
  0
LINE
  5
124
  8
0
  6
CONTINUOUS
 62
     7
 10
64.05001250000001
 20
30.02498749999999
 30
0.0
 11
66.25001250000001
 21
30.02498749999999
 31
0.0
  0
LINE
  5
125
  8
0
  6
CONTINUOUS
 62
     7
 10
157.2500125
 20
20.02498749999999
 30
0.0
 11
159.4500125
 21
20.02498749999999
 31
0.0
  0
LINE
  5
126
  8
0
  6
CONTINUOUS
 62
     7
 10
157.2500125
 20
20.02498749999999
 30
0.0
 11
157.2500125
 21
30.02498749999999
 31
0.0
  0
LINE
  5
127
  8
0
  6
CONTINUOUS
 62
     7
 10
157.2500125
 20
30.02498749999999
 30
0.0
 11
159.4500125
 21
30.02498749999999
 31
0.0
  0
LINE
  5
128
  8
0
  6
CONTINUOUS
 62
     7
 10
133.9500125
 20
20.02498749999999
 30
0.0
 11
136.1500125
 21
20.02498749999999
 31
0.0
  0
LINE
  5
129
  8
0
  6
CONTINUOUS
 62
     7
 10
133.9500125
 20
20.02498749999999
 30
0.0
 11
133.9500125
 21
30.02498749999999
 31
0.0
  0
LINE
  5
12A
  8
0
  6
CONTINUOUS
 62
     7
 10
133.9500125
 20
30.02498749999999
 30
0.0
 11
136.1500125
 21
30.02498749999999
 31
0.0
  0
LINE
  5
12B
  8
0
  6
CONTINUOUS
 62
     7
 10
57.05001249999998
 20
22.02498749999999
 30
0.0
 11
56.05001249999999
 21
21.02498749999999
 31
0.0
  0
LINE
  5
12C
  8
0
  6
CONTINUOUS
 62
     7
 10
63.05001249999999
 20
22.02498749999999
 30
0.0
 11
57.05001249999998
 21
22.02498749999999
 31
0.0
  0
LINE
  5
12D
  8
0
  6
CONTINUOUS
 62
     7
 10
64.05001250000001
 20
21.02498749999998
 30
0.0
 11
63.05001249999999
 21
22.02498749999999
 31
0.0
  0
LINE
  5
12E
  8
0
  6
CONTINUOUS
 62
     7
 10
56.05001250000002
 20
20.02498749999999
 30
0.0
 11
64.05001250000001
 21
20.02498749999999
 31
0.0
  0
LINE
  5
12F
  8
0
  6
CONTINUOUS
 62
     7
 10
80.35001249999998
 20
22.02498749999999
 30
0.0
 11
79.35001249999999
 21
21.02498749999999
 31
0.0
  0
LINE
  5
130
  8
0
  6
CONTINUOUS
 62
     7
 10
86.35001249999999
 20
22.02498749999999
 30
0.0
 11
80.35001249999998
 21
22.02498749999999
 31
0.0
  0
LINE
  5
131
  8
0
  6
CONTINUOUS
 62
     7
 10
87.3500125
 20
21.02498749999997
 30
0.0
 11
86.35001249999999
 21
22.02498749999999
 31
0.0
  0
LINE
  5
132
  8
0
  6
CONTINUOUS
 62
     7
 10
79.3500125
 20
20.02498749999999
 30
0.0
 11
87.35001249999999
 21
20.02498749999999
 31
0.0
  0
LINE
  5
133
  8
0
  6
CONTINUOUS
 62
     7
 10
33.75001249999998
 20
22.02498749999999
 30
0.0
 11
32.7500125
 21
21.02498749999999
 31
0.0
  0
LINE
  5
134
  8
0
  6
CONTINUOUS
 62
     7
 10
39.75001249999999
 20
22.02498749999999
 30
0.0
 11
33.75001249999998
 21
22.02498749999999
 31
0.0
  0
LINE
  5
135
  8
0
  6
CONTINUOUS
 62
     7
 10
40.7500125
 20
21.02498749999998
 30
0.0
 11
39.75001249999999
 21
22.02498749999999
 31
0.0
  0
LINE
  5
136
  8
0
  6
CONTINUOUS
 62
     7
 10
32.75001250000002
 20
20.02498749999999
 30
0.0
 11
40.7500125
 21
20.02498749999999
 31
0.0
  0
LINE
  5
137
  8
0
  6
CONTINUOUS
 62
     7
 10
103.6500125
 20
22.02498749999999
 30
0.0
 11
102.6500125
 21
21.02498749999999
 31
0.0
  0
LINE
  5
138
  8
0
  6
CONTINUOUS
 62
     7
 10
109.6500125
 20
22.02498749999999
 30
0.0
 11
103.6500125
 21
22.02498749999999
 31
0.0
  0
LINE
  5
139
  8
0
  6
CONTINUOUS
 62
     7
 10
110.6500125
 20
21.02498749999998
 30
0.0
 11
109.6500125
 21
22.02498749999999
 31
0.0
  0
LINE
  5
13A
  8
0
  6
CONTINUOUS
 62
     7
 10
102.6500125
 20
20.02498749999999
 30
0.0
 11
110.6500125
 21
20.02498749999999
 31
0.0
  0
LINE
  5
13B
  8
0
  6
CONTINUOUS
 62
     7
 10
126.9500125
 20
22.02498749999999
 30
0.0
 11
125.9500125
 21
21.02498749999999
 31
0.0
  0
LINE
  5
13C
  8
0
  6
CONTINUOUS
 62
     7
 10
132.9500125
 20
22.02498749999999
 30
0.0
 11
126.9500125
 21
22.02498749999999
 31
0.0
  0
LINE
  5
13D
  8
0
  6
CONTINUOUS
 62
     7
 10
133.9500125
 20
21.02498749999997
 30
0.0
 11
132.9500125
 21
22.02498749999999
 31
0.0
  0
LINE
  5
13E
  8
0
  6
CONTINUOUS
 62
     7
 10
125.9500125
 20
20.02498749999999
 30
0.0
 11
133.9500125
 21
20.02498749999999
 31
0.0
  0
LINE
  5
13F
  8
0
  6
CONTINUOUS
 62
     7
 10
150.2500125
 20
22.02498749999999
 30
0.0
 11
149.2500125
 21
21.02498749999999
 31
0.0
  0
LINE
  5
140
  8
0
  6
CONTINUOUS
 62
     7
 10
156.2500125
 20
22.02498749999999
 30
0.0
 11
150.2500125
 21
22.02498749999999
 31
0.0
  0
LINE
  5
141
  8
0
  6
CONTINUOUS
 62
     7
 10
157.2500125
 20
21.02498749999998
 30
0.0
 11
156.2500125
 21
22.02498749999999
 31
0.0
  0
LINE
  5
142
  8
0
  6
CONTINUOUS
 62
     7
 10
149.2500125
 20
20.02498749999999
 30
0.0
 11
157.2500125
 21
20.02498749999999
 31
0.0
  0
ENDBLK
  8
0
  0
BLOCK
  8
0
  2
D_FRAME_VIEW_9290
 70
     0
 10
0.0
 20
0.0
 30
0.0
  0
LINE
  5
147
  8
0
  6
CONTINUOUS
 62
     7
 10
20.9500125
 20
61.99998750000002
 30
0.0
 11
23.7500125
 21
61.99998750000002
 31
0.0
  0
LINE
  5
148
  8
0
  6
CONTINUOUS
 62
     7
 10
23.7500125
 20
51.99998750000001
 30
0.0
 11
23.7500125
 21
61.99998750000002
 31
0.0
  0
LINE
  5
149
  8
0
  6
CONTINUOUS
 62
     7
 10
19.7500125
 20
51.99998750000001
 30
0.0
 11
23.7500125
 21
51.99998750000001
 31
0.0
  0
LINE
  5
14A
  8
0
  6
CONTINUOUS
 62
     7
 10
19.7500125
 20
45.99998750000003
 30
0.0
 11
19.7500125
 21
51.99998750000001
 31
0.0
  0
LINE
  5
14B
  8
0
  6
CONTINUOUS
 62
     7
 10
21.7500125
 20
45.99998749999997
 30
0.0
 11
19.7500125
 21
45.99998750000003
 31
0.0
  0
LINE
  5
14C
  8
0
  6
CONTINUOUS
 62
     7
 10
32.75001250000002
 20
39.99998750000002
 30
0.0
 11
32.7500125
 21
41.89998749999999
 31
0.0
  0
LINE
  5
14D
  8
0
  6
CONTINUOUS
 62
     7
 10
19.65001250000001
 20
39.99998749999997
 30
0.0
 11
32.75001250000002
 21
39.99998750000002
 31
0.0
  0
LINE
  5
14E
  8
0
  6
CONTINUOUS
 62
     7
 10
17.4500125
 20
44.09998749999998
 30
0.0
 11
17.45001249999999
 21
269.9999875
 31
0.0
  0
LINE
  5
14F
  8
0
  6
CONTINUOUS
 62
     7
 10
19.7500125
 20
269.9999875
 30
0.0
 11
17.45001249999999
 21
269.9999875
 31
0.0
  0
LINE
  5
150
  8
0
  6
CONTINUOUS
 62
     7
 10
19.75001249999998
 20
257.9999875
 30
0.0
 11
19.7500125
 21
269.9999875
 31
0.0
  0
LINE
  5
151
  8
0
  6
CONTINUOUS
 62
     7
 10
19.75001249999998
 20
257.9999875
 30
0.0
 11
23.75001249999999
 21
257.9999875
 31
0.0
  0
LINE
  5
152
  8
0
  6
CONTINUOUS
 62
     7
 10
23.75001249999999
 20
247.9999875
 30
0.0
 11
23.75001249999999
 21
257.9999875
 31
0.0
  0
LINE
  5
153
  8
0
  6
CONTINUOUS
 62
     7
 10
20.95001249999999
 20
247.9999875
 30
0.0
 11
23.75001249999999
 21
247.9999875
 31
0.0
  0
LINE
  5
154
  8
0
  6
CONTINUOUS
 62
     7
 10
20.95001249999999
 20
249.9999875
 30
0.0
 11
20.95001249999999
 21
247.9999875
 31
0.0
  0
LINE
  5
155
  8
0
  6
CONTINUOUS
 62
     7
 10
21.75001249999999
 20
249.9999875
 30
0.0
 11
20.95001249999999
 21
249.9999875
 31
0.0
  0
LINE
  5
156
  8
0
  6
CONTINUOUS
 62
     7
 10
21.7500125
 20
254.9999875
 30
0.0
 11
21.75001249999999
 21
249.9999875
 31
0.0
  0
LINE
  5
157
  8
0
  6
CONTINUOUS
 62
     7
 10
19.75001249999998
 20
254.9999875
 30
0.0
 11
21.7500125
 21
254.9999875
 31
0.0
  0
LINE
  5
158
  8
0
  6
CONTINUOUS
 62
     7
 10
19.7500125
 20
233.4999875
 30
0.0
 11
19.75001249999998
 21
254.9999875
 31
0.0
  0
LINE
  5
159
  8
0
  6
CONTINUOUS
 62
     7
 10
19.7500125
 20
233.4999875
 30
0.0
 11
18.7500125
 21
232.9999875
 31
0.0
  0
LINE
  5
15A
  8
0
  6
CONTINUOUS
 62
     7
 10
18.7500125
 20
232.9999875
 30
0.0
 11
19.7500125
 21
232.4999875
 31
0.0
  0
LINE
  5
15B
  8
0
  6
CONTINUOUS
 62
     7
 10
19.7500125
 20
197.8999875
 30
0.0
 11
19.7500125
 21
232.4999875
 31
0.0
  0
LINE
  5
15C
  8
0
  6
CONTINUOUS
 62
     7
 10
32.7500125
 20
197.8999875
 30
0.0
 11
19.7500125
 21
197.8999875
 31
0.0
  0
LINE
  5
15D
  8
0
  6
CONTINUOUS
 62
     7
 10
32.7500125
 20
195.9999875
 30
0.0
 11
32.7500125
 21
197.8999875
 31
0.0
  0
LINE
  5
15E
  8
0
  6
CONTINUOUS
 62
     7
 10
19.7500125
 20
195.9999875
 30
0.0
 11
32.7500125
 21
195.9999875
 31
0.0
  0
LINE
  5
15F
  8
0
  6
CONTINUOUS
 62
     7
 10
19.7500125
 20
194.4999875
 30
0.0
 11
19.7500125
 21
195.9999875
 31
0.0
  0
LINE
  5
160
  8
0
  6
CONTINUOUS
 62
     7
 10
19.7500125
 20
194.4999875
 30
0.0
 11
18.7500125
 21
193.9999875
 31
0.0
  0
LINE
  5
161
  8
0
  6
CONTINUOUS
 62
     7
 10
18.7500125
 20
193.9999875
 30
0.0
 11
19.7500125
 21
193.4999875
 31
0.0
  0
LINE
  5
162
  8
0
  6
CONTINUOUS
 62
     7
 10
19.7500125
 20
191.9999875
 30
0.0
 11
19.7500125
 21
193.4999875
 31
0.0
  0
LINE
  5
163
  8
0
  6
CONTINUOUS
 62
     7
 10
32.7500125
 20
191.9999875
 30
0.0
 11
19.7500125
 21
191.9999875
 31
0.0
  0
LINE
  5
164
  8
0
  6
CONTINUOUS
 62
     7
 10
32.7500125
 20
190.0999875
 30
0.0
 11
32.7500125
 21
191.9999875
 31
0.0
  0
LINE
  5
165
  8
0
  6
CONTINUOUS
 62
     7
 10
19.7500125
 20
190.0999875
 30
0.0
 11
32.7500125
 21
190.0999875
 31
0.0
  0
LINE
  5
166
  8
0
  6
CONTINUOUS
 62
     7
 10
19.7500125
 20
155.4999875
 30
0.0
 11
19.7500125
 21
190.0999875
 31
0.0
  0
LINE
  5
167
  8
0
  6
CONTINUOUS
 62
     7
 10
19.7500125
 20
155.4999875
 30
0.0
 11
18.7500125
 21
154.9999875
 31
0.0
  0
LINE
  5
168
  8
0
  6
CONTINUOUS
 62
     7
 10
18.7500125
 20
154.9999875
 30
0.0
 11
19.7500125
 21
154.4999875
 31
0.0
  0
LINE
  5
169
  8
0
  6
CONTINUOUS
 62
     7
 10
19.75001250000001
 20
119.8999875
 30
0.0
 11
19.7500125
 21
154.4999875
 31
0.0
  0
LINE
  5
16A
  8
0
  6
CONTINUOUS
 62
     7
 10
32.7500125
 20
119.8999875
 30
0.0
 11
19.75001250000001
 21
119.8999875
 31
0.0
  0
LINE
  5
16B
  8
0
  6
CONTINUOUS
 62
     7
 10
32.7500125
 20
117.9999875
 30
0.0
 11
32.7500125
 21
119.8999875
 31
0.0
  0
LINE
  5
16C
  8
0
  6
CONTINUOUS
 62
     7
 10
19.7500125
 20
117.9999875
 30
0.0
 11
32.7500125
 21
117.9999875
 31
0.0
  0
LINE
  5
16D
  8
0
  6
CONTINUOUS
 62
     7
 10
19.7500125
 20
116.4999875
 30
0.0
 11
18.7500125
 21
115.9999875
 31
0.0
  0
LINE
  5
16E
  8
0
  6
CONTINUOUS
 62
     7
 10
18.7500125
 20
115.9999875
 30
0.0
 11
19.7500125
 21
115.4999875
 31
0.0
  0
LINE
  5
16F
  8
0
  6
CONTINUOUS
 62
     7
 10
19.7500125
 20
113.9999875
 30
0.0
 11
19.7500125
 21
115.4999875
 31
0.0
  0
LINE
  5
170
  8
0
  6
CONTINUOUS
 62
     7
 10
32.7500125
 20
113.9999875
 30
0.0
 11
19.7500125
 21
113.9999875
 31
0.0
  0
LINE
  5
171
  8
0
  6
CONTINUOUS
 62
     7
 10
32.7500125
 20
112.0999875
 30
0.0
 11
32.7500125
 21
113.9999875
 31
0.0
  0
LINE
  5
172
  8
0
  6
CONTINUOUS
 62
     7
 10
19.7500125
 20
112.0999875
 30
0.0
 11
32.7500125
 21
112.0999875
 31
0.0
  0
LINE
  5
173
  8
0
  6
CONTINUOUS
 62
     7
 10
19.7500125
 20
77.49998750000002
 30
0.0
 11
19.7500125
 21
112.0999875
 31
0.0
  0
LINE
  5
174
  8
0
  6
CONTINUOUS
 62
     7
 10
19.7500125
 20
77.49998750000002
 30
0.0
 11
18.7500125
 21
76.99998750000002
 31
0.0
  0
LINE
  5
175
  8
0
  6
CONTINUOUS
 62
     7
 10
18.7500125
 20
76.99998750000002
 30
0.0
 11
19.7500125
 21
76.4999875
 31
0.0
  0
LINE
  5
176
  8
0
  6
CONTINUOUS
 62
     7
 10
19.7500125
 20
54.99998750000001
 30
0.0
 11
19.7500125
 21
76.4999875
 31
0.0
  0
LINE
  5
177
  8
0
  6
CONTINUOUS
 62
     7
 10
19.7500125
 20
54.99998750000001
 30
0.0
 11
21.7500125
 21
54.99998750000001
 31
0.0
  0
LINE
  5
178
  8
0
  6
CONTINUOUS
 62
     7
 10
21.7500125
 20
54.99998750000001
 30
0.0
 11
21.7500125
 21
59.9999875
 31
0.0
  0
LINE
  5
179
  8
0
  6
CONTINUOUS
 62
     7
 10
21.7500125
 20
59.9999875
 30
0.0
 11
20.95001249999999
 21
59.9999875
 31
0.0
  0
LINE
  5
17A
  8
0
  6
CONTINUOUS
 62
     7
 10
20.95001249999999
 20
59.9999875
 30
0.0
 11
20.9500125
 21
61.99998750000002
 31
0.0
  0
LINE
  5
17B
  8
0
  6
CONTINUOUS
 62
     7
 10
19.7500125
 20
116.4999875
 30
0.0
 11
19.7500125
 21
117.9999875
 31
0.0
  0
LINE
  5
17C
  8
0
  6
CONTINUOUS
 62
     7
 10
17.4500125
 20
44.09998749999998
 30
0.0
 11
19.6500125
 21
44.09998750000002
 31
0.0
  0
LINE
  5
17D
  8
0
  6
CONTINUOUS
 62
     7
 10
21.7500125
 20
41.89998750000004
 30
0.0
 11
21.7500125
 21
45.99998749999997
 31
0.0
  0
LINE
  5
17E
  8
0
  6
CONTINUOUS
 62
     7
 10
32.7500125
 20
41.89998749999999
 30
0.0
 11
21.7500125
 21
41.89998750000004
 31
0.0
  0
LINE
  5
17F
  8
0
  6
CONTINUOUS
 62
     7
 10
19.6500125
 20
44.09998750000002
 30
0.0
 11
19.65001250000001
 21
39.99998749999997
 31
0.0
  0
LINE
  5
180
  8
0
  6
CONTINUOUS
 62
     7
 10
137.4500125
 20
61.99998750000003
 30
0.0
 11
140.2500125
 21
61.99998750000003
 31
0.0
  0
LINE
  5
181
  8
0
  6
CONTINUOUS
 62
     7
 10
140.2500125
 20
51.99998750000002
 30
0.0
 11
140.2500125
 21
61.99998750000003
 31
0.0
  0
LINE
  5
182
  8
0
  6
CONTINUOUS
 62
     7
 10
136.2500125
 20
51.99998750000002
 30
0.0
 11
140.2500125
 21
51.99998750000002
 31
0.0
  0
LINE
  5
183
  8
0
  6
CONTINUOUS
 62
     7
 10
136.2500125
 20
45.99998750000005
 30
0.0
 11
136.2500125
 21
51.99998750000002
 31
0.0
  0
LINE
  5
184
  8
0
  6
CONTINUOUS
 62
     7
 10
138.2500125
 20
45.99998749999999
 30
0.0
 11
136.2500125
 21
45.99998750000005
 31
0.0
  0
LINE
  5
185
  8
0
  6
CONTINUOUS
 62
     7
 10
149.2500125
 20
39.99998750000004
 30
0.0
 11
149.2500125
 21
41.8999875
 31
0.0
  0
LINE
  5
186
  8
0
  6
CONTINUOUS
 62
     7
 10
136.1500125
 20
39.99998749999999
 30
0.0
 11
149.2500125
 21
39.99998750000004
 31
0.0
  0
LINE
  5
187
  8
0
  6
CONTINUOUS
 62
     7
 10
133.9500125
 20
44.09998749999999
 30
0.0
 11
133.9500125
 21
269.9999875
 31
0.0
  0
LINE
  5
188
  8
0
  6
CONTINUOUS
 62
     7
 10
136.2500125
 20
269.9999875
 30
0.0
 11
133.9500125
 21
269.9999875
 31
0.0
  0
LINE
  5
189
  8
0
  6
CONTINUOUS
 62
     7
 10
136.2500125
 20
257.9999875
 30
0.0
 11
136.2500125
 21
269.9999875
 31
0.0
  0
LINE
  5
18A
  8
0
  6
CONTINUOUS
 62
     7
 10
136.2500125
 20
257.9999875
 30
0.0
 11
140.2500125
 21
257.9999875
 31
0.0
  0
LINE
  5
18B
  8
0
  6
CONTINUOUS
 62
     7
 10
140.2500125
 20
247.9999875
 30
0.0
 11
140.2500125
 21
257.9999875
 31
0.0
  0
LINE
  5
18C
  8
0
  6
CONTINUOUS
 62
     7
 10
137.4500125
 20
247.9999875
 30
0.0
 11
140.2500125
 21
247.9999875
 31
0.0
  0
LINE
  5
18D
  8
0
  6
CONTINUOUS
 62
     7
 10
138.2500125
 20
249.9999875
 30
0.0
 11
137.4500125
 21
249.9999875
 31
0.0
  0
LINE
  5
18E
  8
0
  6
CONTINUOUS
 62
     7
 10
138.2500125
 20
254.9999875
 30
0.0
 11
138.2500125
 21
249.9999875
 31
0.0
  0
LINE
  5
18F
  8
0
  6
CONTINUOUS
 62
     7
 10
136.2500125
 20
233.4999875
 30
0.0
 11
136.2500125
 21
254.9999875
 31
0.0
  0
LINE
  5
190
  8
0
  6
CONTINUOUS
 62
     7
 10
136.2500125
 20
233.4999875
 30
0.0
 11
135.2500125
 21
232.9999875000001
 31
0.0
  0
LINE
  5
191
  8
0
  6
CONTINUOUS
 62
     7
 10
135.2500125
 20
232.9999875000001
 30
0.0
 11
136.2500125
 21
232.4999875000001
 31
0.0
  0
LINE
  5
192
  8
0
  6
CONTINUOUS
 62
     7
 10
136.2500125
 20
197.8999875
 30
0.0
 11
136.2500125
 21
232.4999875000001
 31
0.0
  0
LINE
  5
193
  8
0
  6
CONTINUOUS
 62
     7
 10
149.2500125
 20
197.8999875
 30
0.0
 11
136.2500125
 21
197.8999875
 31
0.0
  0
LINE
  5
194
  8
0
  6
CONTINUOUS
 62
     7
 10
149.2500125
 20
195.9999875
 30
0.0
 11
149.2500125
 21
197.8999875
 31
0.0
  0
LINE
  5
195
  8
0
  6
CONTINUOUS
 62
     7
 10
136.2500125
 20
195.9999875
 30
0.0
 11
149.2500125
 21
195.9999875
 31
0.0
  0
LINE
  5
196
  8
0
  6
CONTINUOUS
 62
     7
 10
136.2500125
 20
194.4999875
 30
0.0
 11
136.2500125
 21
195.9999875
 31
0.0
  0
LINE
  5
197
  8
0
  6
CONTINUOUS
 62
     7
 10
136.2500125
 20
194.4999875
 30
0.0
 11
135.2500125
 21
193.9999875
 31
0.0
  0
LINE
  5
198
  8
0
  6
CONTINUOUS
 62
     7
 10
135.2500125
 20
193.9999875
 30
0.0
 11
136.2500125
 21
193.4999875
 31
0.0
  0
LINE
  5
199
  8
0
  6
CONTINUOUS
 62
     7
 10
136.2500125
 20
191.9999875
 30
0.0
 11
136.2500125
 21
193.4999875
 31
0.0
  0
LINE
  5
19A
  8
0
  6
CONTINUOUS
 62
     7
 10
149.2500125
 20
191.9999875
 30
0.0
 11
136.2500125
 21
191.9999875
 31
0.0
  0
LINE
  5
19B
  8
0
  6
CONTINUOUS
 62
     7
 10
149.2500125
 20
190.0999875
 30
0.0
 11
149.2500125
 21
191.9999875
 31
0.0
  0
LINE
  5
19C
  8
0
  6
CONTINUOUS
 62
     7
 10
136.2500125
 20
190.0999875
 30
0.0
 11
149.2500125
 21
190.0999875
 31
0.0
  0
LINE
  5
19D
  8
0
  6
CONTINUOUS
 62
     7
 10
136.2500125
 20
155.4999875
 30
0.0
 11
136.2500125
 21
190.0999875
 31
0.0
  0
LINE
  5
19E
  8
0
  6
CONTINUOUS
 62
     7
 10
136.2500125
 20
155.4999875
 30
0.0
 11
135.2500125
 21
154.9999875
 31
0.0
  0
LINE
  5
19F
  8
0
  6
CONTINUOUS
 62
     7
 10
135.2500125
 20
154.9999875
 30
0.0
 11
136.2500125
 21
154.4999875
 31
0.0
  0
LINE
  5
1A0
  8
0
  6
CONTINUOUS
 62
     7
 10
136.2500125
 20
119.8999875
 30
0.0
 11
136.2500125
 21
154.4999875
 31
0.0
  0
LINE
  5
1A1
  8
0
  6
CONTINUOUS
 62
     7
 10
149.2500125
 20
119.8999875
 30
0.0
 11
136.2500125
 21
119.8999875
 31
0.0
  0
LINE
  5
1A2
  8
0
  6
CONTINUOUS
 62
     7
 10
149.2500125
 20
117.9999875
 30
0.0
 11
149.2500125
 21
119.8999875
 31
0.0
  0
LINE
  5
1A3
  8
0
  6
CONTINUOUS
 62
     7
 10
136.2500125
 20
117.9999875
 30
0.0
 11
149.2500125
 21
117.9999875
 31
0.0
  0
LINE
  5
1A4
  8
0
  6
CONTINUOUS
 62
     7
 10
136.2500125
 20
116.4999875
 30
0.0
 11
136.2500125
 21
117.9999875
 31
0.0
  0
LINE
  5
1A5
  8
0
  6
CONTINUOUS
 62
     7
 10
136.2500125
 20
116.4999875
 30
0.0
 11
135.2500125
 21
115.9999875
 31
0.0
  0
LINE
  5
1A6
  8
0
  6
CONTINUOUS
 62
     7
 10
135.2500125
 20
115.9999875
 30
0.0
 11
136.2500125
 21
115.4999875
 31
0.0
  0
LINE
  5
1A7
  8
0
  6
CONTINUOUS
 62
     7
 10
136.2500125
 20
113.9999875
 30
0.0
 11
136.2500125
 21
115.4999875
 31
0.0
  0
LINE
  5
1A8
  8
0
  6
CONTINUOUS
 62
     7
 10
149.2500125
 20
113.9999875
 30
0.0
 11
136.2500125
 21
113.9999875
 31
0.0
  0
LINE
  5
1A9
  8
0
  6
CONTINUOUS
 62
     7
 10
149.2500125
 20
112.0999875
 30
0.0
 11
149.2500125
 21
113.9999875
 31
0.0
  0
LINE
  5
1AA
  8
0
  6
CONTINUOUS
 62
     7
 10
136.2500125
 20
112.0999875
 30
0.0
 11
149.2500125
 21
112.0999875
 31
0.0
  0
LINE
  5
1AB
  8
0
  6
CONTINUOUS
 62
     7
 10
136.2500125
 20
77.49998750000003
 30
0.0
 11
136.2500125
 21
112.0999875
 31
0.0
  0
LINE
  5
1AC
  8
0
  6
CONTINUOUS
 62
     7
 10
136.2500125
 20
77.49998750000003
 30
0.0
 11
135.2500125
 21
76.99998750000003
 31
0.0
  0
LINE
  5
1AD
  8
0
  6
CONTINUOUS
 62
     7
 10
135.2500125
 20
76.99998750000003
 30
0.0
 11
136.2500125
 21
76.49998750000002
 31
0.0
  0
LINE
  5
1AE
  8
0
  6
CONTINUOUS
 62
     7
 10
136.2500125
 20
54.99998750000002
 30
0.0
 11
136.2500125
 21
76.49998750000002
 31
0.0
  0
LINE
  5
1AF
  8
0
  6
CONTINUOUS
 62
     7
 10
136.2500125
 20
54.99998750000002
 30
0.0
 11
138.2500125
 21
54.99998750000002
 31
0.0
  0
LINE
  5
1B0
  8
0
  6
CONTINUOUS
 62
     7
 10
137.4500125
 20
59.99998750000002
 30
0.0
 11
137.4500125
 21
61.99998750000003
 31
0.0
  0
LINE
  5
1B1
  8
0
  6
CONTINUOUS
 62
     7
 10
136.2500125
 20
254.9999875
 30
0.0
 11
138.2500125
 21
254.9999875
 31
0.0
  0
LINE
  5
1B2
  8
0
  6
CONTINUOUS
 62
     7
 10
138.2500125
 20
54.99998750000002
 30
0.0
 11
138.2500125
 21
59.99998750000002
 31
0.0
  0
LINE
  5
1B3
  8
0
  6
CONTINUOUS
 62
     7
 10
138.2500125
 20
59.99998750000002
 30
0.0
 11
137.4500125
 21
59.99998750000002
 31
0.0
  0
LINE
  5
1B4
  8
0
  6
CONTINUOUS
 62
     7
 10
137.4500125
 20
249.9999875
 30
0.0
 11
137.4500125
 21
247.9999875
 31
0.0
  0
LINE
  5
1B5
  8
0
  6
CONTINUOUS
 62
     7
 10
133.9500125
 20
44.09998749999999
 30
0.0
 11
136.1500125
 21
44.09998750000003
 31
0.0
  0
LINE
  5
1B6
  8
0
  6
CONTINUOUS
 62
     7
 10
149.2500125
 20
41.8999875
 30
0.0
 11
138.2500125
 21
41.89998750000005
 31
0.0
  0
LINE
  5
1B7
  8
0
  6
CONTINUOUS
 62
     7
 10
138.2500125
 20
41.89998750000005
 30
0.0
 11
138.2500125
 21
45.99998749999999
 31
0.0
  0
LINE
  5
1B8
  8
0
  6
CONTINUOUS
 62
     7
 10
136.1500125
 20
44.09998750000003
 30
0.0
 11
136.1500125
 21
39.99998749999999
 31
0.0
  0
LINE
  5
1B9
  8
0
  6
CONTINUOUS
 62
     7
 10
67.55001250000001
 20
61.99998750000002
 30
0.0
 11
70.3500125
 21
61.99998750000002
 31
0.0
  0
LINE
  5
1BA
  8
0
  6
CONTINUOUS
 62
     7
 10
70.3500125
 20
51.99998750000001
 30
0.0
 11
70.3500125
 21
61.99998750000002
 31
0.0
  0
LINE
  5
1BB
  8
0
  6
CONTINUOUS
 62
     7
 10
66.35001249999999
 20
51.99998750000001
 30
0.0
 11
70.3500125
 21
51.99998750000001
 31
0.0
  0
LINE
  5
1BC
  8
0
  6
CONTINUOUS
 62
     7
 10
66.35001249999999
 20
45.99998750000003
 30
0.0
 11
66.35001249999999
 21
51.99998750000001
 31
0.0
  0
LINE
  5
1BD
  8
0
  6
CONTINUOUS
 62
     7
 10
68.3500125
 20
45.99998749999997
 30
0.0
 11
66.35001249999999
 21
45.99998750000003
 31
0.0
  0
LINE
  5
1BE
  8
0
  6
CONTINUOUS
 62
     7
 10
79.3500125
 20
39.99998750000002
 30
0.0
 11
79.35001249999999
 21
41.89998749999999
 31
0.0
  0
LINE
  5
1BF
  8
0
  6
CONTINUOUS
 62
     7
 10
66.25001250000001
 20
39.99998749999997
 30
0.0
 11
79.35001250000002
 21
39.99998750000002
 31
0.0
  0
LINE
  5
1C0
  8
0
  6
CONTINUOUS
 62
     7
 10
64.05001250000001
 20
44.09998749999998
 30
0.0
 11
64.0500125
 21
269.9999875
 31
0.0
  0
LINE
  5
1C1
  8
0
  6
CONTINUOUS
 62
     7
 10
66.35001249999999
 20
269.9999875
 30
0.0
 11
64.0500125
 21
269.9999875
 31
0.0
  0
LINE
  5
1C2
  8
0
  6
CONTINUOUS
 62
     7
 10
66.35001249999999
 20
257.9999875
 30
0.0
 11
66.35001249999999
 21
269.9999875
 31
0.0
  0
LINE
  5
1C3
  8
0
  6
CONTINUOUS
 62
     7
 10
66.35001249999999
 20
257.9999875
 30
0.0
 11
70.3500125
 21
257.9999875
 31
0.0
  0
LINE
  5
1C4
  8
0
  6
CONTINUOUS
 62
     7
 10
70.35001249999999
 20
247.9999875
 30
0.0
 11
70.35001249999999
 21
257.9999875
 31
0.0
  0
LINE
  5
1C5
  8
0
  6
CONTINUOUS
 62
     7
 10
67.5500125
 20
247.9999875
 30
0.0
 11
70.35001249999999
 21
247.9999875
 31
0.0
  0
LINE
  5
1C6
  8
0
  6
CONTINUOUS
 62
     7
 10
67.55001249999998
 20
249.9999875
 30
0.0
 11
67.55001249999998
 21
247.9999875
 31
0.0
  0
LINE
  5
1C7
  8
0
  6
CONTINUOUS
 62
     7
 10
68.3500125
 20
249.9999875
 30
0.0
 11
67.5500125
 21
249.9999875
 31
0.0
  0
LINE
  5
1C8
  8
0
  6
CONTINUOUS
 62
     7
 10
68.3500125
 20
254.9999875
 30
0.0
 11
68.3500125
 21
249.9999875
 31
0.0
  0
LINE
  5
1C9
  8
0
  6
CONTINUOUS
 62
     7
 10
66.35001249999999
 20
254.9999875
 30
0.0
 11
68.3500125
 21
254.9999875
 31
0.0
  0
LINE
  5
1CA
  8
0
  6
CONTINUOUS
 62
     7
 10
66.35001249999999
 20
233.4999875
 30
0.0
 11
66.35001249999999
 21
254.9999875
 31
0.0
  0
LINE
  5
1CB
  8
0
  6
CONTINUOUS
 62
     7
 10
66.35001249999999
 20
233.4999875
 30
0.0
 11
65.35001249999999
 21
232.9999875
 31
0.0
  0
LINE
  5
1CC
  8
0
  6
CONTINUOUS
 62
     7
 10
65.35001249999999
 20
232.9999875
 30
0.0
 11
66.35001249999999
 21
232.4999875
 31
0.0
  0
LINE
  5
1CD
  8
0
  6
CONTINUOUS
 62
     7
 10
66.35001249999999
 20
197.8999875
 30
0.0
 11
66.35001249999999
 21
232.4999875
 31
0.0
  0
LINE
  5
1CE
  8
0
  6
CONTINUOUS
 62
     7
 10
79.35001249999999
 20
197.8999875
 30
0.0
 11
66.35001249999999
 21
197.8999875
 31
0.0
  0
LINE
  5
1CF
  8
0
  6
CONTINUOUS
 62
     7
 10
79.3500125
 20
195.9999875
 30
0.0
 11
79.3500125
 21
197.8999875
 31
0.0
  0
LINE
  5
1D0
  8
0
  6
CONTINUOUS
 62
     7
 10
66.35001249999999
 20
195.9999875
 30
0.0
 11
79.35001249999999
 21
195.9999875
 31
0.0
  0
LINE
  5
1D1
  8
0
  6
CONTINUOUS
 62
     7
 10
66.35001249999999
 20
194.4999875
 30
0.0
 11
66.35001249999999
 21
195.9999875
 31
0.0
  0
LINE
  5
1D2
  8
0
  6
CONTINUOUS
 62
     7
 10
66.35001249999999
 20
194.4999875
 30
0.0
 11
65.35001249999999
 21
193.9999875
 31
0.0
  0
LINE
  5
1D3
  8
0
  6
CONTINUOUS
 62
     7
 10
65.35001249999999
 20
193.9999875
 30
0.0
 11
66.35001249999999
 21
193.4999875
 31
0.0
  0
LINE
  5
1D4
  8
0
  6
CONTINUOUS
 62
     7
 10
66.35001249999999
 20
191.9999875
 30
0.0
 11
66.35001249999999
 21
193.4999875
 31
0.0
  0
LINE
  5
1D5
  8
0
  6
CONTINUOUS
 62
     7
 10
79.35001249999999
 20
191.9999875
 30
0.0
 11
66.35001249999999
 21
191.9999875
 31
0.0
  0
LINE
  5
1D6
  8
0
  6
CONTINUOUS
 62
     7
 10
79.3500125
 20
190.0999875
 30
0.0
 11
79.3500125
 21
191.9999875
 31
0.0
  0
LINE
  5
1D7
  8
0
  6
CONTINUOUS
 62
     7
 10
66.35001249999999
 20
190.0999875
 30
0.0
 11
79.35001249999999
 21
190.0999875
 31
0.0
  0
LINE
  5
1D8
  8
0
  6
CONTINUOUS
 62
     7
 10
66.35001249999999
 20
155.4999875
 30
0.0
 11
66.35001249999999
 21
190.0999875
 31
0.0
  0
LINE
  5
1D9
  8
0
  6
CONTINUOUS
 62
     7
 10
66.35001249999999
 20
155.4999875
 30
0.0
 11
65.35001249999999
 21
154.9999875
 31
0.0
  0
LINE
  5
1DA
  8
0
  6
CONTINUOUS
 62
     7
 10
65.35001249999999
 20
154.9999875
 30
0.0
 11
66.35001249999999
 21
154.4999875
 31
0.0
  0
LINE
  5
1DB
  8
0
  6
CONTINUOUS
 62
     7
 10
66.35001249999999
 20
119.8999875
 30
0.0
 11
66.35001249999999
 21
154.4999875
 31
0.0
  0
LINE
  5
1DC
  8
0
  6
CONTINUOUS
 62
     7
 10
79.35001249999999
 20
119.8999875
 30
0.0
 11
66.35001249999999
 21
119.8999875
 31
0.0
  0
LINE
  5
1DD
  8
0
  6
CONTINUOUS
 62
     7
 10
79.3500125
 20
117.9999875
 30
0.0
 11
79.3500125
 21
119.8999875
 31
0.0
  0
LINE
  5
1DE
  8
0
  6
CONTINUOUS
 62
     7
 10
66.35001249999999
 20
117.9999875
 30
0.0
 11
79.35001249999999
 21
117.9999875
 31
0.0
  0
LINE
  5
1DF
  8
0
  6
CONTINUOUS
 62
     7
 10
66.35001249999999
 20
116.4999875
 30
0.0
 11
65.35001249999999
 21
115.9999875
 31
0.0
  0
LINE
  5
1E0
  8
0
  6
CONTINUOUS
 62
     7
 10
65.35001249999999
 20
115.9999875
 30
0.0
 11
66.35001249999999
 21
115.4999875
 31
0.0
  0
LINE
  5
1E1
  8
0
  6
CONTINUOUS
 62
     7
 10
66.35001249999999
 20
113.9999875
 30
0.0
 11
66.35001249999999
 21
115.4999875
 31
0.0
  0
LINE
  5
1E2
  8
0
  6
CONTINUOUS
 62
     7
 10
79.35001249999999
 20
113.9999875
 30
0.0
 11
66.35001249999999
 21
113.9999875
 31
0.0
  0
LINE
  5
1E3
  8
0
  6
CONTINUOUS
 62
     7
 10
79.35001249999999
 20
112.0999875
 30
0.0
 11
79.35001249999999
 21
113.9999875
 31
0.0
  0
LINE
  5
1E4
  8
0
  6
CONTINUOUS
 62
     7
 10
66.35001249999999
 20
112.0999875
 30
0.0
 11
79.35001249999999
 21
112.0999875
 31
0.0
  0
LINE
  5
1E5
  8
0
  6
CONTINUOUS
 62
     7
 10
66.35001249999999
 20
77.49998750000002
 30
0.0
 11
65.35001249999999
 21
76.99998750000002
 31
0.0
  0
LINE
  5
1E6
  8
0
  6
CONTINUOUS
 62
     7
 10
65.35001249999999
 20
76.99998750000002
 30
0.0
 11
66.35001249999999
 21
76.4999875
 31
0.0
  0
LINE
  5
1E7
  8
0
  6
CONTINUOUS
 62
     7
 10
66.35001249999999
 20
54.99998750000001
 30
0.0
 11
68.3500125
 21
54.99998750000001
 31
0.0
  0
LINE
  5
1E8
  8
0
  6
CONTINUOUS
 62
     7
 10
68.3500125
 20
54.99998750000001
 30
0.0
 11
68.3500125
 21
59.9999875
 31
0.0
  0
LINE
  5
1E9
  8
0
  6
CONTINUOUS
 62
     7
 10
68.3500125
 20
59.9999875
 30
0.0
 11
67.5500125
 21
59.9999875
 31
0.0
  0
LINE
  5
1EA
  8
0
  6
CONTINUOUS
 62
     7
 10
67.55001250000001
 20
59.9999875
 30
0.0
 11
67.55001250000001
 21
61.99998750000002
 31
0.0
  0
LINE
  5
1EB
  8
0
  6
CONTINUOUS
 62
     7
 10
66.35001249999999
 20
54.99998750000001
 30
0.0
 11
66.35001249999999
 21
76.4999875
 31
0.0
  0
LINE
  5
1EC
  8
0
  6
CONTINUOUS
 62
     7
 10
66.35001249999999
 20
116.4999875
 30
0.0
 11
66.35001249999999
 21
117.9999875
 31
0.0
  0
LINE
  5
1ED
  8
0
  6
CONTINUOUS
 62
     7
 10
66.35001249999999
 20
77.49998750000002
 30
0.0
 11
66.35001249999999
 21
112.0999875
 31
0.0
  0
LINE
  5
1EE
  8
0
  6
CONTINUOUS
 62
     7
 10
66.25001250000001
 20
44.09998750000002
 30
0.0
 11
66.25001250000001
 21
39.99998749999997
 31
0.0
  0
LINE
  5
1EF
  8
0
  6
CONTINUOUS
 62
     7
 10
79.3500125
 20
41.89998749999999
 30
0.0
 11
68.35001250000002
 21
41.89998750000004
 31
0.0
  0
LINE
  5
1F0
  8
0
  6
CONTINUOUS
 62
     7
 10
64.05001250000001
 20
44.09998749999998
 30
0.0
 11
66.25001250000001
 21
44.09998750000002
 31
0.0
  0
LINE
  5
1F1
  8
0
  6
CONTINUOUS
 62
     7
 10
68.3500125
 20
41.89998750000004
 30
0.0
 11
68.3500125
 21
45.99998749999997
 31
0.0
  0
LINE
  5
1F2
  8
0
  6
CONTINUOUS
 62
     7
 10
90.85001249999999
 20
61.99998750000002
 30
0.0
 11
93.6500125
 21
61.99998750000002
 31
0.0
  0
LINE
  5
1F3
  8
0
  6
CONTINUOUS
 62
     7
 10
93.6500125
 20
51.99998750000001
 30
0.0
 11
93.6500125
 21
61.99998750000002
 31
0.0
  0
LINE
  5
1F4
  8
0
  6
CONTINUOUS
 62
     7
 10
89.6500125
 20
51.99998750000001
 30
0.0
 11
93.6500125
 21
51.99998750000001
 31
0.0
  0
LINE
  5
1F5
  8
0
  6
CONTINUOUS
 62
     7
 10
89.6500125
 20
45.99998750000003
 30
0.0
 11
89.6500125
 21
51.99998750000001
 31
0.0
  0
LINE
  5
1F6
  8
0
  6
CONTINUOUS
 62
     7
 10
91.6500125
 20
45.99998749999997
 30
0.0
 11
89.6500125
 21
45.99998750000003
 31
0.0
  0
LINE
  5
1F7
  8
0
  6
CONTINUOUS
 62
     7
 10
102.6500125
 20
39.99998750000002
 30
0.0
 11
102.6500125
 21
41.89998749999999
 31
0.0
  0
LINE
  5
1F8
  8
0
  6
CONTINUOUS
 62
     7
 10
89.55001250000001
 20
39.99998749999997
 30
0.0
 11
102.6500125
 21
39.99998750000002
 31
0.0
  0
LINE
  5
1F9
  8
0
  6
CONTINUOUS
 62
     7
 10
87.3500125
 20
44.09998749999998
 30
0.0
 11
87.35001249999999
 21
269.9999875
 31
0.0
  0
LINE
  5
1FA
  8
0
  6
CONTINUOUS
 62
     7
 10
89.65001249999999
 20
269.9999875
 30
0.0
 11
87.35001249999999
 21
269.9999875
 31
0.0
  0
LINE
  5
1FB
  8
0
  6
CONTINUOUS
 62
     7
 10
89.6500125
 20
257.9999875
 30
0.0
 11
89.65001249999999
 21
269.9999875
 31
0.0
  0
LINE
  5
1FC
  8
0
  6
CONTINUOUS
 62
     7
 10
89.6500125
 20
257.9999875
 30
0.0
 11
93.6500125
 21
257.9999875
 31
0.0
  0
LINE
  5
1FD
  8
0
  6
CONTINUOUS
 62
     7
 10
93.6500125
 20
247.9999875
 30
0.0
 11
93.6500125
 21
257.9999875
 31
0.0
  0
LINE
  5
1FE
  8
0
  6
CONTINUOUS
 62
     7
 10
90.85001249999999
 20
247.9999875
 30
0.0
 11
93.6500125
 21
247.9999875
 31
0.0
  0
LINE
  5
1FF
  8
0
  6
CONTINUOUS
 62
     7
 10
90.85001249999999
 20
249.9999875
 30
0.0
 11
90.85001249999999
 21
247.9999875
 31
0.0
  0
LINE
  5
200
  8
0
  6
CONTINUOUS
 62
     7
 10
89.6500125
 20
254.9999875
 30
0.0
 11
91.6500125
 21
254.9999875
 31
0.0
  0
LINE
  5
201
  8
0
  6
CONTINUOUS
 62
     7
 10
89.6500125
 20
233.4999875
 30
0.0
 11
89.6500125
 21
254.9999875
 31
0.0
  0
LINE
  5
202
  8
0
  6
CONTINUOUS
 62
     7
 10
89.6500125
 20
233.4999875
 30
0.0
 11
88.6500125
 21
232.9999875
 31
0.0
  0
LINE
  5
203
  8
0
  6
CONTINUOUS
 62
     7
 10
88.6500125
 20
232.9999875
 30
0.0
 11
89.6500125
 21
232.4999875
 31
0.0
  0
LINE
  5
204
  8
0
  6
CONTINUOUS
 62
     7
 10
89.65001250000002
 20
197.8999875
 30
0.0
 11
89.6500125
 21
232.4999875
 31
0.0
  0
LINE
  5
205
  8
0
  6
CONTINUOUS
 62
     7
 10
102.6500125
 20
197.8999875
 30
0.0
 11
89.65001250000002
 21
197.8999875
 31
0.0
  0
LINE
  5
206
  8
0
  6
CONTINUOUS
 62
     7
 10
102.6500125
 20
195.9999875
 30
0.0
 11
102.6500125
 21
197.8999875
 31
0.0
  0
LINE
  5
207
  8
0
  6
CONTINUOUS
 62
     7
 10
89.6500125
 20
195.9999875
 30
0.0
 11
102.6500125
 21
195.9999875
 31
0.0
  0
LINE
  5
208
  8
0
  6
CONTINUOUS
 62
     7
 10
89.6500125
 20
194.4999875
 30
0.0
 11
89.6500125
 21
195.9999875
 31
0.0
  0
LINE
  5
209
  8
0
  6
CONTINUOUS
 62
     7
 10
89.6500125
 20
194.4999875
 30
0.0
 11
88.6500125
 21
193.9999875
 31
0.0
  0
LINE
  5
20A
  8
0
  6
CONTINUOUS
 62
     7
 10
88.6500125
 20
193.9999875
 30
0.0
 11
89.6500125
 21
193.4999875
 31
0.0
  0
LINE
  5
20B
  8
0
  6
CONTINUOUS
 62
     7
 10
89.65001250000002
 20
191.9999875
 30
0.0
 11
89.6500125
 21
193.4999875
 31
0.0
  0
LINE
  5
20C
  8
0
  6
CONTINUOUS
 62
     7
 10
102.6500125
 20
191.9999875
 30
0.0
 11
89.65001250000002
 21
191.9999875
 31
0.0
  0
LINE
  5
20D
  8
0
  6
CONTINUOUS
 62
     7
 10
102.6500125
 20
190.0999875
 30
0.0
 11
102.6500125
 21
191.9999875
 31
0.0
  0
LINE
  5
20E
  8
0
  6
CONTINUOUS
 62
     7
 10
89.6500125
 20
190.0999875
 30
0.0
 11
102.6500125
 21
190.0999875
 31
0.0
  0
LINE
  5
20F
  8
0
  6
CONTINUOUS
 62
     7
 10
89.6500125
 20
155.4999875
 30
0.0
 11
89.6500125
 21
190.0999875
 31
0.0
  0
LINE
  5
210
  8
0
  6
CONTINUOUS
 62
     7
 10
88.6500125
 20
154.9999875
 30
0.0
 11
89.6500125
 21
154.4999875
 31
0.0
  0
LINE
  5
211
  8
0
  6
CONTINUOUS
 62
     7
 10
89.6500125
 20
119.8999875
 30
0.0
 11
89.6500125
 21
154.4999875
 31
0.0
  0
LINE
  5
212
  8
0
  6
CONTINUOUS
 62
     7
 10
102.6500125
 20
119.8999875
 30
0.0
 11
89.6500125
 21
119.8999875
 31
0.0
  0
LINE
  5
213
  8
0
  6
CONTINUOUS
 62
     7
 10
102.6500125
 20
117.9999875
 30
0.0
 11
102.6500125
 21
119.8999875
 31
0.0
  0
LINE
  5
214
  8
0
  6
CONTINUOUS
 62
     7
 10
89.6500125
 20
117.9999875
 30
0.0
 11
102.6500125
 21
117.9999875
 31
0.0
  0
LINE
  5
215
  8
0
  6
CONTINUOUS
 62
     7
 10
89.6500125
 20
113.9999875
 30
0.0
 11
89.6500125
 21
115.4999875
 31
0.0
  0
LINE
  5
216
  8
0
  6
CONTINUOUS
 62
     7
 10
102.6500125
 20
113.9999875
 30
0.0
 11
89.6500125
 21
113.9999875
 31
0.0
  0
LINE
  5
217
  8
0
  6
CONTINUOUS
 62
     7
 10
102.6500125
 20
112.0999875
 30
0.0
 11
102.6500125
 21
113.9999875
 31
0.0
  0
LINE
  5
218
  8
0
  6
CONTINUOUS
 62
     7
 10
89.6500125
 20
112.0999875
 30
0.0
 11
102.6500125
 21
112.0999875
 31
0.0
  0
LINE
  5
219
  8
0
  6
CONTINUOUS
 62
     7
 10
89.6500125
 20
77.49998750000002
 30
0.0
 11
89.6500125
 21
112.0999875
 31
0.0
  0
LINE
  5
21A
  8
0
  6
CONTINUOUS
 62
     7
 10
88.6500125
 20
76.99998750000002
 30
0.0
 11
89.6500125
 21
76.4999875
 31
0.0
  0
LINE
  5
21B
  8
0
  6
CONTINUOUS
 62
     7
 10
89.6500125
 20
54.99998750000001
 30
0.0
 11
89.6500125
 21
76.4999875
 31
0.0
  0
LINE
  5
21C
  8
0
  6
CONTINUOUS
 62
     7
 10
89.6500125
 20
54.99998750000001
 30
0.0
 11
91.6500125
 21
54.99998750000001
 31
0.0
  0
LINE
  5
21D
  8
0
  6
CONTINUOUS
 62
     7
 10
91.6500125
 20
54.99998750000001
 30
0.0
 11
91.6500125
 21
59.9999875
 31
0.0
  0
LINE
  5
21E
  8
0
  6
CONTINUOUS
 62
     7
 10
91.6500125
 20
59.9999875
 30
0.0
 11
90.85001249999999
 21
59.9999875
 31
0.0
  0
LINE
  5
21F
  8
0
  6
CONTINUOUS
 62
     7
 10
90.85001249999999
 20
59.9999875
 30
0.0
 11
90.85001249999999
 21
61.99998750000002
 31
0.0
  0
LINE
  5
220
  8
0
  6
CONTINUOUS
 62
     7
 10
89.6500125
 20
77.49998750000002
 30
0.0
 11
88.6500125
 21
76.99998750000002
 31
0.0
  0
LINE
  5
221
  8
0
  6
CONTINUOUS
 62
     7
 10
89.6500125
 20
116.4999875
 30
0.0
 11
88.6500125
 21
115.9999875
 31
0.0
  0
LINE
  5
222
  8
0
  6
CONTINUOUS
 62
     7
 10
89.6500125
 20
155.4999875
 30
0.0
 11
88.6500125
 21
154.9999875
 31
0.0
  0
LINE
  5
223
  8
0
  6
CONTINUOUS
 62
     7
 10
89.6500125
 20
116.4999875
 30
0.0
 11
89.6500125
 21
117.9999875
 31
0.0
  0
LINE
  5
224
  8
0
  6
CONTINUOUS
 62
     7
 10
91.6500125
 20
254.9999875
 30
0.0
 11
91.6500125
 21
249.9999875
 31
0.0
  0
LINE
  5
225
  8
0
  6
CONTINUOUS
 62
     7
 10
88.6500125
 20
115.9999875
 30
0.0
 11
89.6500125
 21
115.4999875
 31
0.0
  0
LINE
  5
226
  8
0
  6
CONTINUOUS
 62
     7
 10
91.6500125
 20
249.9999875
 30
0.0
 11
90.85001249999999
 21
249.9999875
 31
0.0
  0
LINE
  5
227
  8
0
  6
CONTINUOUS
 62
     7
 10
91.6500125
 20
41.89998750000004
 30
0.0
 11
91.6500125
 21
45.99998749999997
 31
0.0
  0
LINE
  5
228
  8
0
  6
CONTINUOUS
 62
     7
 10
102.6500125
 20
41.89998749999999
 30
0.0
 11
91.6500125
 21
41.89998750000004
 31
0.0
  0
LINE
  5
229
  8
0
  6
CONTINUOUS
 62
     7
 10
87.3500125
 20
44.09998749999998
 30
0.0
 11
89.5500125
 21
44.09998750000002
 31
0.0
  0
LINE
  5
22A
  8
0
  6
CONTINUOUS
 62
     7
 10
89.5500125
 20
44.09998750000002
 30
0.0
 11
89.55001250000001
 21
39.99998749999997
 31
0.0
  0
LINE
  5
22B
  8
0
  6
CONTINUOUS
 62
     7
 10
44.2500125
 20
61.99998750000002
 30
0.0
 11
47.0500125
 21
61.99998750000002
 31
0.0
  0
LINE
  5
22C
  8
0
  6
CONTINUOUS
 62
     7
 10
47.0500125
 20
51.99998750000001
 30
0.0
 11
47.0500125
 21
61.99998750000002
 31
0.0
  0
LINE
  5
22D
  8
0
  6
CONTINUOUS
 62
     7
 10
43.0500125
 20
51.99998750000001
 30
0.0
 11
47.0500125
 21
51.99998750000001
 31
0.0
  0
LINE
  5
22E
  8
0
  6
CONTINUOUS
 62
     7
 10
43.0500125
 20
45.99998750000003
 30
0.0
 11
43.0500125
 21
51.99998750000001
 31
0.0
  0
LINE
  5
22F
  8
0
  6
CONTINUOUS
 62
     7
 10
45.0500125
 20
45.99998749999997
 30
0.0
 11
43.0500125
 21
45.99998750000003
 31
0.0
  0
LINE
  5
230
  8
0
  6
CONTINUOUS
 62
     7
 10
56.05001250000002
 20
39.99998750000002
 30
0.0
 11
56.0500125
 21
41.89998749999999
 31
0.0
  0
LINE
  5
231
  8
0
  6
CONTINUOUS
 62
     7
 10
42.9500125
 20
39.99998749999997
 30
0.0
 11
56.05001250000002
 21
39.99998750000002
 31
0.0
  0
LINE
  5
232
  8
0
  6
CONTINUOUS
 62
     7
 10
40.7500125
 20
44.09998749999998
 30
0.0
 11
40.75001249999999
 21
269.9999875
 31
0.0
  0
LINE
  5
233
  8
0
  6
CONTINUOUS
 62
     7
 10
43.05001249999999
 20
269.9999875
 30
0.0
 11
40.75001249999999
 21
269.9999875
 31
0.0
  0
LINE
  5
234
  8
0
  6
CONTINUOUS
 62
     7
 10
43.05001249999999
 20
257.9999875
 30
0.0
 11
43.05001249999999
 21
269.9999875
 31
0.0
  0
LINE
  5
235
  8
0
  6
CONTINUOUS
 62
     7
 10
43.05001249999999
 20
257.9999875
 30
0.0
 11
47.05001249999999
 21
257.9999875
 31
0.0
  0
LINE
  5
236
  8
0
  6
CONTINUOUS
 62
     7
 10
47.05001249999999
 20
247.9999875
 30
0.0
 11
47.05001249999999
 21
257.9999875
 31
0.0
  0
LINE
  5
237
  8
0
  6
CONTINUOUS
 62
     7
 10
44.25001249999999
 20
247.9999875
 30
0.0
 11
47.05001249999999
 21
247.9999875
 31
0.0
  0
LINE
  5
238
  8
0
  6
CONTINUOUS
 62
     7
 10
45.05001249999999
 20
249.9999875
 30
0.0
 11
44.25001249999998
 21
249.9999875
 31
0.0
  0
LINE
  5
239
  8
0
  6
CONTINUOUS
 62
     7
 10
45.05001249999999
 20
254.9999875
 30
0.0
 11
45.05001249999999
 21
249.9999875
 31
0.0
  0
LINE
  5
23A
  8
0
  6
CONTINUOUS
 62
     7
 10
43.05001249999999
 20
254.9999875
 30
0.0
 11
45.05001249999999
 21
254.9999875
 31
0.0
  0
LINE
  5
23B
  8
0
  6
CONTINUOUS
 62
     7
 10
43.05001249999999
 20
233.4999875
 30
0.0
 11
42.05001249999999
 21
232.9999875
 31
0.0
  0
LINE
  5
23C
  8
0
  6
CONTINUOUS
 62
     7
 10
42.05001249999999
 20
232.9999875
 30
0.0
 11
43.05001249999999
 21
232.4999875
 31
0.0
  0
LINE
  5
23D
  8
0
  6
CONTINUOUS
 62
     7
 10
43.05001249999999
 20
197.8999875
 30
0.0
 11
43.05001249999999
 21
232.4999875
 31
0.0
  0
LINE
  5
23E
  8
0
  6
CONTINUOUS
 62
     7
 10
56.05001249999999
 20
197.8999875
 30
0.0
 11
43.05001249999999
 21
197.8999875
 31
0.0
  0
LINE
  5
23F
  8
0
  6
CONTINUOUS
 62
     7
 10
56.0500125
 20
195.9999875
 30
0.0
 11
56.05001249999999
 21
197.8999875
 31
0.0
  0
LINE
  5
240
  8
0
  6
CONTINUOUS
 62
     7
 10
43.05001249999999
 20
195.9999875
 30
0.0
 11
56.0500125
 21
195.9999875
 31
0.0
  0
LINE
  5
241
  8
0
  6
CONTINUOUS
 62
     7
 10
43.05001249999999
 20
194.4999875
 30
0.0
 11
43.05001249999999
 21
195.9999875
 31
0.0
  0
LINE
  5
242
  8
0
  6
CONTINUOUS
 62
     7
 10
43.05001249999999
 20
194.4999875
 30
0.0
 11
42.05001249999999
 21
193.9999875
 31
0.0
  0
LINE
  5
243
  8
0
  6
CONTINUOUS
 62
     7
 10
42.05001249999999
 20
193.9999875
 30
0.0
 11
43.05001249999999
 21
193.4999875
 31
0.0
  0
LINE
  5
244
  8
0
  6
CONTINUOUS
 62
     7
 10
43.05001249999999
 20
191.9999875
 30
0.0
 11
43.05001249999999
 21
193.4999875
 31
0.0
  0
LINE
  5
245
  8
0
  6
CONTINUOUS
 62
     7
 10
56.05001249999999
 20
191.9999875
 30
0.0
 11
43.05001249999999
 21
191.9999875
 31
0.0
  0
LINE
  5
246
  8
0
  6
CONTINUOUS
 62
     7
 10
56.0500125
 20
190.0999875
 30
0.0
 11
56.05001249999999
 21
191.9999875
 31
0.0
  0
LINE
  5
247
  8
0
  6
CONTINUOUS
 62
     7
 10
43.05001249999999
 20
190.0999875
 30
0.0
 11
56.0500125
 21
190.0999875
 31
0.0
  0
LINE
  5
248
  8
0
  6
CONTINUOUS
 62
     7
 10
43.05001249999999
 20
155.4999875
 30
0.0
 11
42.05001249999999
 21
154.9999875
 31
0.0
  0
LINE
  5
249
  8
0
  6
CONTINUOUS
 62
     7
 10
43.05001250000001
 20
119.8999875
 30
0.0
 11
43.05001249999999
 21
154.4999875
 31
0.0
  0
LINE
  5
24A
  8
0
  6
CONTINUOUS
 62
     7
 10
56.05001249999999
 20
119.8999875
 30
0.0
 11
43.05001250000001
 21
119.8999875
 31
0.0
  0
LINE
  5
24B
  8
0
  6
CONTINUOUS
 62
     7
 10
56.0500125
 20
117.9999875
 30
0.0
 11
56.05001249999999
 21
119.8999875
 31
0.0
  0
LINE
  5
24C
  8
0
  6
CONTINUOUS
 62
     7
 10
43.05001249999999
 20
117.9999875
 30
0.0
 11
56.0500125
 21
117.9999875
 31
0.0
  0
LINE
  5
24D
  8
0
  6
CONTINUOUS
 62
     7
 10
43.0500125
 20
113.9999875
 30
0.0
 11
43.05001249999999
 21
115.4999875
 31
0.0
  0
LINE
  5
24E
  8
0
  6
CONTINUOUS
 62
     7
 10
56.05001249999999
 20
113.9999875
 30
0.0
 11
43.0500125
 21
113.9999875
 31
0.0
  0
LINE
  5
24F
  8
0
  6
CONTINUOUS
 62
     7
 10
56.05001249999999
 20
112.0999875
 30
0.0
 11
56.05001249999999
 21
113.9999875
 31
0.0
  0
LINE
  5
250
  8
0
  6
CONTINUOUS
 62
     7
 10
43.05001249999999
 20
112.0999875
 30
0.0
 11
56.05001249999999
 21
112.0999875
 31
0.0
  0
LINE
  5
251
  8
0
  6
CONTINUOUS
 62
     7
 10
42.05001249999999
 20
76.99998750000002
 30
0.0
 11
43.05001249999999
 21
76.4999875
 31
0.0
  0
LINE
  5
252
  8
0
  6
CONTINUOUS
 62
     7
 10
44.2500125
 20
59.9999875
 30
0.0
 11
44.2500125
 21
61.99998750000002
 31
0.0
  0
LINE
  5
253
  8
0
  6
CONTINUOUS
 62
     7
 10
43.05001249999999
 20
155.4999875
 30
0.0
 11
43.05001249999999
 21
190.0999875
 31
0.0
  0
LINE
  5
254
  8
0
  6
CONTINUOUS
 62
     7
 10
44.25001249999998
 20
249.9999875
 30
0.0
 11
44.25001249999999
 21
247.9999875
 31
0.0
  0
LINE
  5
255
  8
0
  6
CONTINUOUS
 62
     7
 10
43.05001249999999
 20
77.49998750000002
 30
0.0
 11
42.05001249999999
 21
76.99998750000002
 31
0.0
  0
LINE
  5
256
  8
0
  6
CONTINUOUS
 62
     7
 10
42.05001249999999
 20
115.9999875
 30
0.0
 11
43.05001249999999
 21
115.4999875
 31
0.0
  0
LINE
  5
257
  8
0
  6
CONTINUOUS
 62
     7
 10
43.05001249999999
 20
116.4999875
 30
0.0
 11
42.05001249999999
 21
115.9999875
 31
0.0
  0
LINE
  5
258
  8
0
  6
CONTINUOUS
 62
     7
 10
42.05001249999999
 20
154.9999875
 30
0.0
 11
43.05001249999999
 21
154.4999875
 31
0.0
  0
LINE
  5
259
  8
0
  6
CONTINUOUS
 62
     7
 10
43.0500125
 20
54.99998750000001
 30
0.0
 11
45.05001250000001
 21
54.99998750000001
 31
0.0
  0
LINE
  5
25A
  8
0
  6
CONTINUOUS
 62
     7
 10
43.05001249999999
 20
77.49998750000002
 30
0.0
 11
43.05001249999999
 21
112.0999875
 31
0.0
  0
LINE
  5
25B
  8
0
  6
CONTINUOUS
 62
     7
 10
43.05001249999999
 20
233.4999875
 30
0.0
 11
43.05001249999999
 21
254.9999875
 31
0.0
  0
LINE
  5
25C
  8
0
  6
CONTINUOUS
 62
     7
 10
43.0500125
 20
54.99998750000001
 30
0.0
 11
43.05001249999999
 21
76.4999875
 31
0.0
  0
LINE
  5
25D
  8
0
  6
CONTINUOUS
 62
     7
 10
45.0500125
 20
59.9999875
 30
0.0
 11
44.2500125
 21
59.9999875
 31
0.0
  0
LINE
  5
25E
  8
0
  6
CONTINUOUS
 62
     7
 10
45.05001250000001
 20
54.99998750000001
 30
0.0
 11
45.0500125
 21
59.9999875
 31
0.0
  0
LINE
  5
25F
  8
0
  6
CONTINUOUS
 62
     7
 10
43.05001249999999
 20
116.4999875
 30
0.0
 11
43.05001249999999
 21
117.9999875
 31
0.0
  0
LINE
  5
260
  8
0
  6
CONTINUOUS
 62
     7
 10
42.9500125
 20
44.09998750000002
 30
0.0
 11
42.9500125
 21
39.99998749999997
 31
0.0
  0
LINE
  5
261
  8
0
  6
CONTINUOUS
 62
     7
 10
45.05001250000001
 20
41.89998750000004
 30
0.0
 11
45.0500125
 21
45.99998749999997
 31
0.0
  0
LINE
  5
262
  8
0
  6
CONTINUOUS
 62
     7
 10
56.0500125
 20
41.89998749999999
 30
0.0
 11
45.05001250000001
 21
41.89998750000004
 31
0.0
  0
LINE
  5
263
  8
0
  6
CONTINUOUS
 62
     7
 10
40.7500125
 20
44.09998749999998
 30
0.0
 11
42.9500125
 21
44.09998750000002
 31
0.0
  0
LINE
  5
264
  8
0
  6
CONTINUOUS
 62
     7
 10
114.1500125
 20
61.99998750000002
 30
0.0
 11
116.9500125
 21
61.99998750000002
 31
0.0
  0
LINE
  5
265
  8
0
  6
CONTINUOUS
 62
     7
 10
116.9500125
 20
51.99998750000001
 30
0.0
 11
116.9500125
 21
61.99998750000002
 31
0.0
  0
LINE
  5
266
  8
0
  6
CONTINUOUS
 62
     7
 10
112.9500125
 20
51.99998750000001
 30
0.0
 11
116.9500125
 21
51.99998750000001
 31
0.0
  0
LINE
  5
267
  8
0
  6
CONTINUOUS
 62
     7
 10
112.9500125
 20
45.99998750000003
 30
0.0
 11
112.9500125
 21
51.99998750000001
 31
0.0
  0
LINE
  5
268
  8
0
  6
CONTINUOUS
 62
     7
 10
114.9500125
 20
45.99998749999997
 30
0.0
 11
112.9500125
 21
45.99998750000003
 31
0.0
  0
LINE
  5
269
  8
0
  6
CONTINUOUS
 62
     7
 10
125.9500125
 20
39.99998750000002
 30
0.0
 11
125.9500125
 21
41.89998749999999
 31
0.0
  0
LINE
  5
26A
  8
0
  6
CONTINUOUS
 62
     7
 10
112.8500125
 20
39.99998749999997
 30
0.0
 11
125.9500125
 21
39.99998750000002
 31
0.0
  0
LINE
  5
26B
  8
0
  6
CONTINUOUS
 62
     7
 10
110.6500125
 20
44.09998749999998
 30
0.0
 11
110.6500125
 21
269.9999875
 31
0.0
  0
LINE
  5
26C
  8
0
  6
CONTINUOUS
 62
     7
 10
112.9500125
 20
269.9999875
 30
0.0
 11
110.6500125
 21
269.9999875
 31
0.0
  0
LINE
  5
26D
  8
0
  6
CONTINUOUS
 62
     7
 10
112.9500125
 20
257.9999875
 30
0.0
 11
112.9500125
 21
269.9999875
 31
0.0
  0
LINE
  5
26E
  8
0
  6
CONTINUOUS
 62
     7
 10
112.9500125
 20
257.9999875
 30
0.0
 11
116.9500125
 21
257.9999875
 31
0.0
  0
LINE
  5
26F
  8
0
  6
CONTINUOUS
 62
     7
 10
116.9500125
 20
247.9999875
 30
0.0
 11
116.9500125
 21
257.9999875
 31
0.0
  0
LINE
  5
270
  8
0
  6
CONTINUOUS
 62
     7
 10
114.1500125
 20
247.9999875
 30
0.0
 11
116.9500125
 21
247.9999875
 31
0.0
  0
LINE
  5
271
  8
0
  6
CONTINUOUS
 62
     7
 10
112.9500125
 20
254.9999875
 30
0.0
 11
114.9500125
 21
254.9999875
 31
0.0
  0
LINE
  5
272
  8
0
  6
CONTINUOUS
 62
     7
 10
112.9500125
 20
233.4999875
 30
0.0
 11
111.9500125
 21
232.9999875
 31
0.0
  0
LINE
  5
273
  8
0
  6
CONTINUOUS
 62
     7
 10
111.9500125
 20
232.9999875
 30
0.0
 11
112.9500125
 21
232.4999875
 31
0.0
  0
LINE
  5
274
  8
0
  6
CONTINUOUS
 62
     7
 10
112.9500125
 20
197.8999875
 30
0.0
 11
112.9500125
 21
232.4999875
 31
0.0
  0
LINE
  5
275
  8
0
  6
CONTINUOUS
 62
     7
 10
125.9500125
 20
197.8999875
 30
0.0
 11
112.9500125
 21
197.8999875
 31
0.0
  0
LINE
  5
276
  8
0
  6
CONTINUOUS
 62
     7
 10
125.9500125
 20
195.9999875
 30
0.0
 11
125.9500125
 21
197.8999875
 31
0.0
  0
LINE
  5
277
  8
0
  6
CONTINUOUS
 62
     7
 10
112.9500125
 20
195.9999875
 30
0.0
 11
125.9500125
 21
195.9999875
 31
0.0
  0
LINE
  5
278
  8
0
  6
CONTINUOUS
 62
     7
 10
112.9500125
 20
194.4999875
 30
0.0
 11
112.9500125
 21
195.9999875
 31
0.0
  0
LINE
  5
279
  8
0
  6
CONTINUOUS
 62
     7
 10
112.9500125
 20
194.4999875
 30
0.0
 11
111.9500125
 21
193.9999875
 31
0.0
  0
LINE
  5
27A
  8
0
  6
CONTINUOUS
 62
     7
 10
111.9500125
 20
193.9999875
 30
0.0
 11
112.9500125
 21
193.4999875
 31
0.0
  0
LINE
  5
27B
  8
0
  6
CONTINUOUS
 62
     7
 10
112.9500125
 20
191.9999875
 30
0.0
 11
112.9500125
 21
193.4999875
 31
0.0
  0
LINE
  5
27C
  8
0
  6
CONTINUOUS
 62
     7
 10
125.9500125
 20
191.9999875
 30
0.0
 11
112.9500125
 21
191.9999875
 31
0.0
  0
LINE
  5
27D
  8
0
  6
CONTINUOUS
 62
     7
 10
125.9500125
 20
190.0999875
 30
0.0
 11
125.9500125
 21
191.9999875
 31
0.0
  0
LINE
  5
27E
  8
0
  6
CONTINUOUS
 62
     7
 10
112.9500125
 20
190.0999875
 30
0.0
 11
125.9500125
 21
190.0999875
 31
0.0
  0
LINE
  5
27F
  8
0
  6
CONTINUOUS
 62
     7
 10
111.9500125
 20
154.9999875
 30
0.0
 11
112.9500125
 21
154.4999875
 31
0.0
  0
LINE
  5
280
  8
0
  6
CONTINUOUS
 62
     7
 10
112.9500125
 20
119.8999875
 30
0.0
 11
112.9500125
 21
154.4999875
 31
0.0
  0
LINE
  5
281
  8
0
  6
CONTINUOUS
 62
     7
 10
125.9500125
 20
119.8999875
 30
0.0
 11
112.9500125
 21
119.8999875
 31
0.0
  0
LINE
  5
282
  8
0
  6
CONTINUOUS
 62
     7
 10
125.9500125
 20
117.9999875
 30
0.0
 11
125.9500125
 21
119.8999875
 31
0.0
  0
LINE
  5
283
  8
0
  6
CONTINUOUS
 62
     7
 10
112.9500125
 20
117.9999875
 30
0.0
 11
125.9500125
 21
117.9999875
 31
0.0
  0
LINE
  5
284
  8
0
  6
CONTINUOUS
 62
     7
 10
112.9500125
 20
113.9999875
 30
0.0
 11
112.9500125
 21
115.4999875
 31
0.0
  0
LINE
  5
285
  8
0
  6
CONTINUOUS
 62
     7
 10
125.9500125
 20
113.9999875
 30
0.0
 11
112.9500125
 21
113.9999875
 31
0.0
  0
LINE
  5
286
  8
0
  6
CONTINUOUS
 62
     7
 10
125.9500125
 20
112.0999875
 30
0.0
 11
125.9500125
 21
113.9999875
 31
0.0
  0
LINE
  5
287
  8
0
  6
CONTINUOUS
 62
     7
 10
112.9500125
 20
112.0999875
 30
0.0
 11
125.9500125
 21
112.0999875
 31
0.0
  0
LINE
  5
288
  8
0
  6
CONTINUOUS
 62
     7
 10
112.9500125
 20
77.49998750000002
 30
0.0
 11
112.9500125
 21
112.0999875
 31
0.0
  0
LINE
  5
289
  8
0
  6
CONTINUOUS
 62
     7
 10
112.9500125
 20
54.99998750000001
 30
0.0
 11
114.9500125
 21
54.99998750000001
 31
0.0
  0
LINE
  5
28A
  8
0
  6
CONTINUOUS
 62
     7
 10
114.9500125
 20
54.99998750000001
 30
0.0
 11
114.9500125
 21
59.9999875
 31
0.0
  0
LINE
  5
28B
  8
0
  6
CONTINUOUS
 62
     7
 10
114.1500125
 20
59.9999875
 30
0.0
 11
114.1500125
 21
61.99998750000002
 31
0.0
  0
LINE
  5
28C
  8
0
  6
CONTINUOUS
 62
     7
 10
112.9500125
 20
233.4999875
 30
0.0
 11
112.9500125
 21
254.9999875
 31
0.0
  0
LINE
  5
28D
  8
0
  6
CONTINUOUS
 62
     7
 10
114.9500125
 20
254.9999875
 30
0.0
 11
114.9500125
 21
249.9999875
 31
0.0
  0
LINE
  5
28E
  8
0
  6
CONTINUOUS
 62
     7
 10
111.9500125
 20
76.99998750000002
 30
0.0
 11
112.9500125
 21
76.4999875
 31
0.0
  0
LINE
  5
28F
  8
0
  6
CONTINUOUS
 62
     7
 10
112.9500125
 20
155.4999875
 30
0.0
 11
112.9500125
 21
190.0999875
 31
0.0
  0
LINE
  5
290
  8
0
  6
CONTINUOUS
 62
     7
 10
112.9500125
 20
155.4999875
 30
0.0
 11
111.9500125
 21
154.9999875
 31
0.0
  0
LINE
  5
291
  8
0
  6
CONTINUOUS
 62
     7
 10
114.9500125
 20
59.9999875
 30
0.0
 11
114.1500125
 21
59.9999875
 31
0.0
  0
LINE
  5
292
  8
0
  6
CONTINUOUS
 62
     7
 10
112.9500125
 20
116.4999875
 30
0.0
 11
112.9500125
 21
117.9999875
 31
0.0
  0
LINE
  5
293
  8
0
  6
CONTINUOUS
 62
     7
 10
114.1500125
 20
249.9999875
 30
0.0
 11
114.1500125
 21
247.9999875
 31
0.0
  0
LINE
  5
294
  8
0
  6
CONTINUOUS
 62
     7
 10
114.9500125
 20
249.9999875
 30
0.0
 11
114.1500125
 21
249.9999875
 31
0.0
  0
LINE
  5
295
  8
0
  6
CONTINUOUS
 62
     7
 10
112.9500125
 20
77.49998750000002
 30
0.0
 11
111.9500125
 21
76.99998750000002
 31
0.0
  0
LINE
  5
296
  8
0
  6
CONTINUOUS
 62
     7
 10
111.9500125
 20
115.9999875
 30
0.0
 11
112.9500125
 21
115.4999875
 31
0.0
  0
LINE
  5
297
  8
0
  6
CONTINUOUS
 62
     7
 10
112.9500125
 20
116.4999875
 30
0.0
 11
111.9500125
 21
115.9999875
 31
0.0
  0
LINE
  5
298
  8
0
  6
CONTINUOUS
 62
     7
 10
112.9500125
 20
54.99998750000001
 30
0.0
 11
112.9500125
 21
76.4999875
 31
0.0
  0
LINE
  5
299
  8
0
  6
CONTINUOUS
 62
     7
 10
110.6500125
 20
44.09998749999998
 30
0.0
 11
112.8500125
 21
44.09998750000002
 31
0.0
  0
LINE
  5
29A
  8
0
  6
CONTINUOUS
 62
     7
 10
114.9500125
 20
41.89998750000004
 30
0.0
 11
114.9500125
 21
45.99998749999997
 31
0.0
  0
LINE
  5
29B
  8
0
  6
CONTINUOUS
 62
     7
 10
112.8500125
 20
44.09998750000002
 30
0.0
 11
112.8500125
 21
39.99998749999997
 31
0.0
  0
LINE
  5
29C
  8
0
  6
CONTINUOUS
 62
     7
 10
125.9500125
 20
41.89998749999999
 30
0.0
 11
114.9500125
 21
41.89998750000004
 31
0.0
  0
LINE
  5
29D
  8
0
  6
CONTINUOUS
 62
     7
 10
160.7500125
 20
61.99998750000003
 30
0.0
 11
163.5500125
 21
61.99998750000003
 31
0.0
  0
LINE
  5
29E
  8
0
  6
CONTINUOUS
 62
     7
 10
163.5500125
 20
51.99998750000002
 30
0.0
 11
163.5500125
 21
61.99998750000003
 31
0.0
  0
LINE
  5
29F
  8
0
  6
CONTINUOUS
 62
     7
 10
159.5500125
 20
51.99998750000002
 30
0.0
 11
163.5500125
 21
51.99998750000002
 31
0.0
  0
LINE
  5
2A0
  8
0
  6
CONTINUOUS
 62
     7
 10
159.5500125
 20
45.99998750000005
 30
0.0
 11
159.5500125
 21
51.99998750000002
 31
0.0
  0
LINE
  5
2A1
  8
0
  6
CONTINUOUS
 62
     7
 10
161.5500125
 20
45.99998749999999
 30
0.0
 11
159.5500125
 21
45.99998750000005
 31
0.0
  0
LINE
  5
2A2
  8
0
  6
CONTINUOUS
 62
     7
 10
172.5500125
 20
39.99998750000004
 30
0.0
 11
172.5500125
 21
41.8999875
 31
0.0
  0
LINE
  5
2A3
  8
0
  6
CONTINUOUS
 62
     7
 10
159.4500125
 20
39.99998749999999
 30
0.0
 11
172.5500125
 21
39.99998750000004
 31
0.0
  0
LINE
  5
2A4
  8
0
  6
CONTINUOUS
 62
     7
 10
157.2500125
 20
44.09998749999999
 30
0.0
 11
157.2500125
 21
269.9999875
 31
0.0
  0
LINE
  5
2A5
  8
0
  6
CONTINUOUS
 62
     7
 10
159.5500125
 20
269.9999875
 30
0.0
 11
157.2500125
 21
269.9999875
 31
0.0
  0
LINE
  5
2A6
  8
0
  6
CONTINUOUS
 62
     7
 10
159.5500125
 20
257.9999875
 30
0.0
 11
159.5500125
 21
269.9999875
 31
0.0
  0
LINE
  5
2A7
  8
0
  6
CONTINUOUS
 62
     7
 10
159.5500125
 20
257.9999875
 30
0.0
 11
163.5500125
 21
257.9999875
 31
0.0
  0
LINE
  5
2A8
  8
0
  6
CONTINUOUS
 62
     7
 10
163.5500125
 20
247.9999875
 30
0.0
 11
163.5500125
 21
257.9999875
 31
0.0
  0
LINE
  5
2A9
  8
0
  6
CONTINUOUS
 62
     7
 10
160.7500125
 20
247.9999875
 30
0.0
 11
163.5500125
 21
247.9999875
 31
0.0
  0
LINE
  5
2AA
  8
0
  6
CONTINUOUS
 62
     7
 10
159.5500125
 20
233.4999875
 30
0.0
 11
158.5500125
 21
232.9999875000001
 31
0.0
  0
LINE
  5
2AB
  8
0
  6
CONTINUOUS
 62
     7
 10
158.5500125
 20
232.9999875000001
 30
0.0
 11
159.5500125
 21
232.4999875000001
 31
0.0
  0
LINE
  5
2AC
  8
0
  6
CONTINUOUS
 62
     7
 10
159.5500125
 20
197.8999875
 30
0.0
 11
159.5500125
 21
232.4999875000001
 31
0.0
  0
LINE
  5
2AD
  8
0
  6
CONTINUOUS
 62
     7
 10
172.5500125
 20
197.8999875
 30
0.0
 11
159.5500125
 21
197.8999875
 31
0.0
  0
LINE
  5
2AE
  8
0
  6
CONTINUOUS
 62
     7
 10
172.5500125
 20
195.9999875
 30
0.0
 11
172.5500125
 21
197.8999875
 31
0.0
  0
LINE
  5
2AF
  8
0
  6
CONTINUOUS
 62
     7
 10
159.5500125
 20
195.9999875
 30
0.0
 11
172.5500125
 21
195.9999875
 31
0.0
  0
LINE
  5
2B0
  8
0
  6
CONTINUOUS
 62
     7
 10
159.5500125
 20
194.4999875
 30
0.0
 11
159.5500125
 21
195.9999875
 31
0.0
  0
LINE
  5
2B1
  8
0
  6
CONTINUOUS
 62
     7
 10
159.5500125
 20
194.4999875
 30
0.0
 11
158.5500125
 21
193.9999875
 31
0.0
  0
LINE
  5
2B2
  8
0
  6
CONTINUOUS
 62
     7
 10
158.5500125
 20
193.9999875
 30
0.0
 11
159.5500125
 21
193.4999875
 31
0.0
  0
LINE
  5
2B3
  8
0
  6
CONTINUOUS
 62
     7
 10
159.5500125
 20
191.9999875
 30
0.0
 11
159.5500125
 21
193.4999875
 31
0.0
  0
LINE
  5
2B4
  8
0
  6
CONTINUOUS
 62
     7
 10
172.5500125
 20
191.9999875
 30
0.0
 11
159.5500125
 21
191.9999875
 31
0.0
  0
LINE
  5
2B5
  8
0
  6
CONTINUOUS
 62
     7
 10
172.5500125
 20
190.0999875
 30
0.0
 11
172.5500125
 21
191.9999875
 31
0.0
  0
LINE
  5
2B6
  8
0
  6
CONTINUOUS
 62
     7
 10
159.5500125
 20
190.0999875
 30
0.0
 11
172.5500125
 21
190.0999875
 31
0.0
  0
LINE
  5
2B7
  8
0
  6
CONTINUOUS
 62
     7
 10
159.5500125
 20
155.4999875
 30
0.0
 11
159.5500125
 21
190.0999875
 31
0.0
  0
LINE
  5
2B8
  8
0
  6
CONTINUOUS
 62
     7
 10
159.5500125
 20
155.4999875
 30
0.0
 11
158.5500125
 21
154.9999875
 31
0.0
  0
LINE
  5
2B9
  8
0
  6
CONTINUOUS
 62
     7
 10
159.5500125
 20
119.8999875
 30
0.0
 11
159.5500125
 21
154.4999875
 31
0.0
  0
LINE
  5
2BA
  8
0
  6
CONTINUOUS
 62
     7
 10
172.5500125
 20
119.8999875
 30
0.0
 11
159.5500125
 21
119.8999875
 31
0.0
  0
LINE
  5
2BB
  8
0
  6
CONTINUOUS
 62
     7
 10
172.5500125
 20
117.9999875
 30
0.0
 11
172.5500125
 21
119.8999875
 31
0.0
  0
LINE
  5
2BC
  8
0
  6
CONTINUOUS
 62
     7
 10
159.5500125
 20
117.9999875
 30
0.0
 11
172.5500125
 21
117.9999875
 31
0.0
  0
LINE
  5
2BD
  8
0
  6
CONTINUOUS
 62
     7
 10
159.5500125
 20
116.4999875
 30
0.0
 11
159.5500125
 21
117.9999875
 31
0.0
  0
LINE
  5
2BE
  8
0
  6
CONTINUOUS
 62
     7
 10
159.5500125
 20
116.4999875
 30
0.0
 11
158.5500125
 21
115.9999875
 31
0.0
  0
LINE
  5
2BF
  8
0
  6
CONTINUOUS
 62
     7
 10
159.5500125
 20
113.9999875
 30
0.0
 11
159.5500125
 21
115.4999875
 31
0.0
  0
LINE
  5
2C0
  8
0
  6
CONTINUOUS
 62
     7
 10
172.5500125
 20
113.9999875
 30
0.0
 11
159.5500125
 21
113.9999875
 31
0.0
  0
LINE
  5
2C1
  8
0
  6
CONTINUOUS
 62
     7
 10
172.5500125
 20
112.0999875
 30
0.0
 11
172.5500125
 21
113.9999875
 31
0.0
  0
LINE
  5
2C2
  8
0
  6
CONTINUOUS
 62
     7
 10
159.5500125
 20
112.0999875
 30
0.0
 11
172.5500125
 21
112.0999875
 31
0.0
  0
LINE
  5
2C3
  8
0
  6
CONTINUOUS
 62
     7
 10
161.5500125
 20
54.99998750000002
 30
0.0
 11
161.5500125
 21
59.99998750000002
 31
0.0
  0
LINE
  5
2C4
  8
0
  6
CONTINUOUS
 62
     7
 10
158.5500125
 20
76.99998750000003
 30
0.0
 11
159.5500125
 21
76.49998750000002
 31
0.0
  0
LINE
  5
2C5
  8
0
  6
CONTINUOUS
 62
     7
 10
158.5500125
 20
115.9999875
 30
0.0
 11
159.5500125
 21
115.4999875
 31
0.0
  0
LINE
  5
2C6
  8
0
  6
CONTINUOUS
 62
     7
 10
159.5500125
 20
54.99998750000002
 30
0.0
 11
159.5500125
 21
76.49998750000002
 31
0.0
  0
LINE
  5
2C7
  8
0
  6
CONTINUOUS
 62
     7
 10
161.5500125
 20
59.99998750000002
 30
0.0
 11
160.7500125
 21
59.99998750000002
 31
0.0
  0
LINE
  5
2C8
  8
0
  6
CONTINUOUS
 62
     7
 10
159.5500125
 20
54.99998750000002
 30
0.0
 11
161.5500125
 21
54.99998750000002
 31
0.0
  0
LINE
  5
2C9
  8
0
  6
CONTINUOUS
 62
     7
 10
160.7500125
 20
59.99998750000002
 30
0.0
 11
160.7500125
 21
61.99998750000003
 31
0.0
  0
LINE
  5
2CA
  8
0
  6
CONTINUOUS
 62
     7
 10
160.7500125
 20
249.9999875
 30
0.0
 11
160.7500125
 21
247.9999875
 31
0.0
  0
LINE
  5
2CB
  8
0
  6
CONTINUOUS
 62
     7
 10
161.5500125
 20
249.9999875
 30
0.0
 11
160.7500125
 21
249.9999875
 31
0.0
  0
LINE
  5
2CC
  8
0
  6
CONTINUOUS
 62
     7
 10
161.5500125
 20
254.9999875
 30
0.0
 11
161.5500125
 21
249.9999875
 31
0.0
  0
LINE
  5
2CD
  8
0
  6
CONTINUOUS
 62
     7
 10
159.5500125
 20
254.9999875
 30
0.0
 11
161.5500125
 21
254.9999875
 31
0.0
  0
LINE
  5
2CE
  8
0
  6
CONTINUOUS
 62
     7
 10
158.5500125
 20
154.9999875
 30
0.0
 11
159.5500125
 21
154.4999875
 31
0.0
  0
LINE
  5
2CF
  8
0
  6
CONTINUOUS
 62
     7
 10
159.5500125
 20
77.49998750000003
 30
0.0
 11
159.5500125
 21
112.0999875
 31
0.0
  0
LINE
  5
2D0
  8
0
  6
CONTINUOUS
 62
     7
 10
159.5500125
 20
77.49998750000003
 30
0.0
 11
158.5500125
 21
76.99998750000003
 31
0.0
  0
LINE
  5
2D1
  8
0
  6
CONTINUOUS
 62
     7
 10
159.5500125
 20
233.4999875
 30
0.0
 11
159.5500125
 21
254.9999875
 31
0.0
  0
LINE
  5
2D2
  8
0
  6
CONTINUOUS
 62
     7
 10
157.2500125
 20
44.09998749999999
 30
0.0
 11
159.4500125
 21
44.09998750000003
 31
0.0
  0
LINE
  5
2D3
  8
0
  6
CONTINUOUS
 62
     7
 10
161.5500125
 20
41.89998750000005
 30
0.0
 11
161.5500125
 21
45.99998749999999
 31
0.0
  0
LINE
  5
2D4
  8
0
  6
CONTINUOUS
 62
     7
 10
159.4500125
 20
44.09998750000003
 30
0.0
 11
159.4500125
 21
39.99998749999999
 31
0.0
  0
LINE
  5
2D5
  8
0
  6
CONTINUOUS
 62
     7
 10
172.5500125
 20
41.8999875
 30
0.0
 11
161.5500125
 21
41.89998750000005
 31
0.0
  0
LINE
  5
2D6
  8
0
  6
CONTINUOUS
 62
     7
 10
172.5500125
 20
269.9999875
 30
0.0
 11
161.5500125
 21
269.9999875
 31
0.0
  0
LINE
  5
2D7
  8
0
  6
CONTINUOUS
 62
     7
 10
172.5500125
 20
268.0999875
 30
0.0
 11
172.5500125
 21
269.9999875
 31
0.0
  0
LINE
  5
2D8
  8
0
  6
CONTINUOUS
 62
     7
 10
161.5500125
 20
268.0999875
 30
0.0
 11
172.5500125
 21
268.0999875
 31
0.0
  0
LINE
  5
2D9
  8
0
  6
CONTINUOUS
 62
     7
 10
161.5500125
 20
268.0999875
 30
0.0
 11
161.5500125
 21
269.9999875
 31
0.0
  0
LINE
  5
2DA
  8
0
  6
CONTINUOUS
 62
     7
 10
79.35001249999998
 20
269.9999875
 30
0.0
 11
68.35001249999999
 21
269.9999875
 31
0.0
  0
LINE
  5
2DB
  8
0
  6
CONTINUOUS
 62
     7
 10
79.3500125
 20
268.0999875
 30
0.0
 11
79.35001249999999
 21
269.9999875
 31
0.0
  0
LINE
  5
2DC
  8
0
  6
CONTINUOUS
 62
     7
 10
68.3500125
 20
268.0999875
 30
0.0
 11
79.3500125
 21
268.0999875
 31
0.0
  0
LINE
  5
2DD
  8
0
  6
CONTINUOUS
 62
     7
 10
68.3500125
 20
268.0999875
 30
0.0
 11
68.3500125
 21
269.9999875
 31
0.0
  0
LINE
  5
2DE
  8
0
  6
CONTINUOUS
 62
     7
 10
149.2500125
 20
268.0999875
 30
0.0
 11
149.2500125
 21
269.9999875
 31
0.0
  0
LINE
  5
2DF
  8
0
  6
CONTINUOUS
 62
     7
 10
138.2500125
 20
268.0999875
 30
0.0
 11
149.2500125
 21
268.0999875
 31
0.0
  0
LINE
  5
2E0
  8
0
  6
CONTINUOUS
 62
     7
 10
138.2500125
 20
268.0999875
 30
0.0
 11
138.2500125
 21
269.9999875
 31
0.0
  0
LINE
  5
2E1
  8
0
  6
CONTINUOUS
 62
     7
 10
149.2500125
 20
269.9999875
 30
0.0
 11
138.2500125
 21
269.9999875
 31
0.0
  0
LINE
  5
2E2
  8
0
  6
CONTINUOUS
 62
     7
 10
32.75001249999999
 20
269.9999875
 30
0.0
 11
21.7500125
 21
269.9999875
 31
0.0
  0
LINE
  5
2E3
  8
0
  6
CONTINUOUS
 62
     7
 10
32.7500125
 20
268.0999875
 30
0.0
 11
32.75001249999999
 21
269.9999875
 31
0.0
  0
LINE
  5
2E4
  8
0
  6
CONTINUOUS
 62
     7
 10
21.7500125
 20
268.0999875
 30
0.0
 11
32.7500125
 21
268.0999875
 31
0.0
  0
LINE
  5
2E5
  8
0
  6
CONTINUOUS
 62
     7
 10
21.7500125
 20
268.0999875
 30
0.0
 11
21.7500125
 21
269.9999875
 31
0.0
  0
LINE
  5
2E6
  8
0
  6
CONTINUOUS
 62
     7
 10
125.9500125
 20
268.0999875
 30
0.0
 11
125.9500125
 21
269.9999875
 31
0.0
  0
LINE
  5
2E7
  8
0
  6
CONTINUOUS
 62
     7
 10
114.9500125
 20
268.0999875
 30
0.0
 11
125.9500125
 21
268.0999875
 31
0.0
  0
LINE
  5
2E8
  8
0
  6
CONTINUOUS
 62
     7
 10
125.9500125
 20
269.9999875
 30
0.0
 11
114.9500125
 21
269.9999875
 31
0.0
  0
LINE
  5
2E9
  8
0
  6
CONTINUOUS
 62
     7
 10
114.9500125
 20
268.0999875
 30
0.0
 11
114.9500125
 21
269.9999875
 31
0.0
  0
LINE
  5
2EA
  8
0
  6
CONTINUOUS
 62
     7
 10
56.0500125
 20
268.0999875
 30
0.0
 11
56.05001249999999
 21
269.9999875
 31
0.0
  0
LINE
  5
2EB
  8
0
  6
CONTINUOUS
 62
     7
 10
45.0500125
 20
268.0999875
 30
0.0
 11
56.0500125
 21
268.0999875
 31
0.0
  0
LINE
  5
2EC
  8
0
  6
CONTINUOUS
 62
     7
 10
56.05001249999999
 20
269.9999875
 30
0.0
 11
45.0500125
 21
269.9999875
 31
0.0
  0
LINE
  5
2ED
  8
0
  6
CONTINUOUS
 62
     7
 10
45.0500125
 20
268.0999875
 30
0.0
 11
45.0500125
 21
269.9999875
 31
0.0
  0
LINE
  5
2EE
  8
0
  6
CONTINUOUS
 62
     7
 10
102.6500125
 20
268.0999875
 30
0.0
 11
102.6500125
 21
269.9999875
 31
0.0
  0
LINE
  5
2EF
  8
0
  6
CONTINUOUS
 62
     7
 10
91.6500125
 20
268.0999875
 30
0.0
 11
102.6500125
 21
268.0999875
 31
0.0
  0
LINE
  5
2F0
  8
0
  6
CONTINUOUS
 62
     7
 10
91.6500125
 20
268.0999875
 30
0.0
 11
91.65001249999999
 21
269.9999875
 31
0.0
  0
LINE
  5
2F1
  8
0
  6
CONTINUOUS
 62
     7
 10
102.6500125
 20
269.9999875
 30
0.0
 11
91.65001249999999
 21
269.9999875
 31
0.0
  0
LINE
  5
2F2
  8
0
  6
CONTINUOUS
 62
     7
 10
136.2500125
 20
244.9999875
 30
0.0
 11
136.3111125
 21
244.9999875
 31
0.0
  0
LINE
  5
2F3
  8
0
  6
CONTINUOUS
 62
     7
 10
136.3111125
 20
244.9999875
 30
0.0
 11
136.3111125
 21
254.9999875
 31
0.0
  0
LINE
  5
2F4
  8
0
  6
CONTINUOUS
 62
     7
 10
43.05001249999999
 20
244.9999875
 30
0.0
 11
43.11111249999999
 21
244.9999875
 31
0.0
  0
LINE
  5
2F5
  8
0
  6
CONTINUOUS
 62
     7
 10
43.11111249999999
 20
244.9999875
 30
0.0
 11
43.1111125
 21
254.9999875
 31
0.0
  0
LINE
  5
2F6
  8
0
  6
CONTINUOUS
 62
     7
 10
43.05001249999999
 20
260.9999875
 30
0.0
 11
43.11111249999999
 21
260.9999875
 31
0.0
  0
LINE
  5
2F7
  8
0
  6
CONTINUOUS
 62
     7
 10
43.1111125
 20
257.9999875
 30
0.0
 11
43.11111249999999
 21
260.9999875
 31
0.0
  0
LINE
  5
2F8
  8
0
  6
CONTINUOUS
 62
     7
 10
66.35001249999999
 20
48.99998749999998
 30
0.0
 11
66.4111125
 21
48.99998749999998
 31
0.0
  0
LINE
  5
2F9
  8
0
  6
CONTINUOUS
 62
     7
 10
66.4111125
 20
48.99998749999998
 30
0.0
 11
66.4111125
 21
51.99998750000001
 31
0.0
  0
LINE
  5
2FA
  8
0
  6
CONTINUOUS
 62
     7
 10
66.35001249999999
 20
261.3668419549813
 30
0.0
 11
66.4111125
 21
261.3668419549813
 31
0.0
  0
LINE
  5
2FB
  8
0
  6
CONTINUOUS
 62
     7
 10
66.41111249999999
 20
260.9999875
 30
0.0
 11
66.41111249999999
 21
261.3668419549813
 31
0.0
  0
LINE
  5
2FC
  8
0
  6
CONTINUOUS
 62
     7
 10
66.35001249999999
 20
260.9999875
 30
0.0
 11
66.4111125
 21
260.9999875
 31
0.0
  0
LINE
  5
2FD
  8
0
  6
CONTINUOUS
 62
     7
 10
136.2500125
 20
64.9999875
 30
0.0
 11
136.3111125
 21
64.9999875
 31
0.0
  0
LINE
  5
2FE
  8
0
  6
CONTINUOUS
 62
     7
 10
136.3111125
 20
54.99998750000002
 30
0.0
 11
136.3111125
 21
64.9999875
 31
0.0
  0
LINE
  5
2FF
  8
0
  6
CONTINUOUS
 62
     7
 10
66.4111125
 20
257.9999875
 30
0.0
 11
66.4111125
 21
260.9999875
 31
0.0
  0
LINE
  5
300
  8
0
  6
CONTINUOUS
 62
     7
 10
112.9500125
 20
48.99998749999998
 30
0.0
 11
113.0111125
 21
48.99998749999998
 31
0.0
  0
LINE
  5
301
  8
0
  6
CONTINUOUS
 62
     7
 10
113.0111125
 20
48.99998749999998
 30
0.0
 11
113.0111125
 21
51.99998750000001
 31
0.0
  0
LINE
  5
302
  8
0
  6
CONTINUOUS
 62
     7
 10
136.2500125
 20
260.9999875
 30
0.0
 11
136.3111125
 21
260.9999875
 31
0.0
  0
LINE
  5
303
  8
0
  6
CONTINUOUS
 62
     7
 10
136.3111125
 20
257.9999875
 30
0.0
 11
136.3111125
 21
260.9999875
 31
0.0
  0
LINE
  5
304
  8
0
  6
CONTINUOUS
 62
     7
 10
19.7500125
 20
244.9999875
 30
0.0
 11
19.81111249999999
 21
244.9999875
 31
0.0
  0
LINE
  5
305
  8
0
  6
CONTINUOUS
 62
     7
 10
19.75001249999998
 20
244.6331330450187
 30
0.0
 11
19.81111249999999
 21
244.6331330450187
 31
0.0
  0
LINE
  5
306
  8
0
  6
CONTINUOUS
 62
     7
 10
19.81111249999999
 20
244.6331330450187
 30
0.0
 11
19.81111249999999
 21
244.9999875
 31
0.0
  0
LINE
  5
307
  8
0
  6
CONTINUOUS
 62
     7
 10
19.75001249999998
 20
261.3668419549813
 30
0.0
 11
19.81111249999999
 21
261.3668419549813
 31
0.0
  0
LINE
  5
308
  8
0
  6
CONTINUOUS
 62
     7
 10
19.7500125
 20
260.9999875
 30
0.0
 11
19.81111249999999
 21
260.9999875
 31
0.0
  0
LINE
  5
309
  8
0
  6
CONTINUOUS
 62
     7
 10
19.81111249999999
 20
260.9999875
 30
0.0
 11
19.81111249999999
 21
261.3668419549813
 31
0.0
  0
LINE
  5
30A
  8
0
  6
CONTINUOUS
 62
     7
 10
136.2500125
 20
261.3668419549813
 30
0.0
 11
136.3111125
 21
261.3668419549813
 31
0.0
  0
LINE
  5
30B
  8
0
  6
CONTINUOUS
 62
     7
 10
136.3111125
 20
260.9999875
 30
0.0
 11
136.3111125
 21
261.3668419549813
 31
0.0
  0
LINE
  5
30C
  8
0
  6
CONTINUOUS
 62
     7
 10
136.3111125
 20
244.6331330450187
 30
0.0
 11
136.3111125
 21
244.9999875
 31
0.0
  0
LINE
  5
30D
  8
0
  6
CONTINUOUS
 62
     7
 10
136.2500125
 20
244.6331330450188
 30
0.0
 11
136.3111125
 21
244.6331330450188
 31
0.0
  0
LINE
  5
30E
  8
0
  6
CONTINUOUS
 62
     7
 10
66.35001249999999
 20
64.99998749999999
 30
0.0
 11
66.4111125
 21
64.99998749999999
 31
0.0
  0
LINE
  5
30F
  8
0
  6
CONTINUOUS
 62
     7
 10
66.4111125
 20
54.99998750000001
 30
0.0
 11
66.4111125
 21
64.99998749999999
 31
0.0
  0
LINE
  5
310
  8
0
  6
CONTINUOUS
 62
     7
 10
112.9500125
 20
260.9999875
 30
0.0
 11
113.0111125
 21
260.9999875
 31
0.0
  0
LINE
  5
311
  8
0
  6
CONTINUOUS
 62
     7
 10
113.0111125
 20
257.9999875
 30
0.0
 11
113.0111125
 21
260.9999875
 31
0.0
  0
LINE
  5
312
  8
0
  6
CONTINUOUS
 62
     7
 10
159.5500125
 20
64.9999875
 30
0.0
 11
159.6111125
 21
64.9999875
 31
0.0
  0
LINE
  5
313
  8
0
  6
CONTINUOUS
 62
     7
 10
159.6111125
 20
54.99998750000002
 30
0.0
 11
159.6111125
 21
64.9999875
 31
0.0
  0
LINE
  5
314
  8
0
  6
CONTINUOUS
 62
     7
 10
89.6500125
 20
48.99998749999998
 30
0.0
 11
89.7111125
 21
48.99998749999998
 31
0.0
  0
LINE
  5
315
  8
0
  6
CONTINUOUS
 62
     7
 10
89.7111125
 20
48.99998749999998
 30
0.0
 11
89.7111125
 21
51.99998750000001
 31
0.0
  0
LINE
  5
316
  8
0
  6
CONTINUOUS
 62
     7
 10
66.35001249999999
 20
244.9999875
 30
0.0
 11
66.4111125
 21
244.9999875
 31
0.0
  0
LINE
  5
317
  8
0
  6
CONTINUOUS
 62
     7
 10
66.35001249999999
 20
244.6331330450187
 30
0.0
 11
66.4111125
 21
244.6331330450187
 31
0.0
  0
LINE
  5
318
  8
0
  6
CONTINUOUS
 62
     7
 10
66.41111249999999
 20
244.6331330450187
 30
0.0
 11
66.41111249999999
 21
244.9999875
 31
0.0
  0
LINE
  5
319
  8
0
  6
CONTINUOUS
 62
     7
 10
159.5500125
 20
244.9999875
 30
0.0
 11
159.6111125
 21
244.9999875
 31
0.0
  0
LINE
  5
31A
  8
0
  6
CONTINUOUS
 62
     7
 10
159.6111125
 20
244.9999875
 30
0.0
 11
159.6111125
 21
254.9999875
 31
0.0
  0
LINE
  5
31B
  8
0
  6
CONTINUOUS
 62
     7
 10
159.5500125
 20
260.9999875
 30
0.0
 11
159.6111125
 21
260.9999875
 31
0.0
  0
LINE
  5
31C
  8
0
  6
CONTINUOUS
 62
     7
 10
159.6111125
 20
257.9999875
 30
0.0
 11
159.6111125
 21
260.9999875
 31
0.0
  0
LINE
  5
31D
  8
0
  6
CONTINUOUS
 62
     7
 10
159.5500125
 20
261.3668419549813
 30
0.0
 11
159.6111125
 21
261.3668419549813
 31
0.0
  0
LINE
  5
31E
  8
0
  6
CONTINUOUS
 62
     7
 10
159.6111125
 20
260.9999875
 30
0.0
 11
159.6111125
 21
261.3668419549813
 31
0.0
  0
LINE
  5
31F
  8
0
  6
CONTINUOUS
 62
     7
 10
89.6500125
 20
260.9999875
 30
0.0
 11
89.7111125
 21
260.9999875
 31
0.0
  0
LINE
  5
320
  8
0
  6
CONTINUOUS
 62
     7
 10
89.71111250000001
 20
257.9999875
 30
0.0
 11
89.7111125
 21
260.9999875
 31
0.0
  0
LINE
  5
321
  8
0
  6
CONTINUOUS
 62
     7
 10
89.6500125
 20
244.9999875
 30
0.0
 11
89.7111125
 21
244.9999875
 31
0.0
  0
LINE
  5
322
  8
0
  6
CONTINUOUS
 62
     7
 10
89.7111125
 20
244.6331330450187
 30
0.0
 11
89.7111125
 21
244.9999875
 31
0.0
  0
LINE
  5
323
  8
0
  6
CONTINUOUS
 62
     7
 10
89.6500125
 20
244.6331330450187
 30
0.0
 11
89.7111125
 21
244.6331330450187
 31
0.0
  0
LINE
  5
324
  8
0
  6
CONTINUOUS
 62
     7
 10
89.6500125
 20
261.3668419549813
 30
0.0
 11
89.7111125
 21
261.3668419549813
 31
0.0
  0
LINE
  5
325
  8
0
  6
CONTINUOUS
 62
     7
 10
89.7111125
 20
260.9999875
 30
0.0
 11
89.7111125
 21
261.3668419549813
 31
0.0
  0
LINE
  5
326
  8
0
  6
CONTINUOUS
 62
     7
 10
159.5500125
 20
48.9999875
 30
0.0
 11
159.6111125
 21
48.9999875
 31
0.0
  0
LINE
  5
327
  8
0
  6
CONTINUOUS
 62
     7
 10
159.6111125
 20
48.9999875
 30
0.0
 11
159.6111125
 21
51.99998750000002
 31
0.0
  0
LINE
  5
328
  8
0
  6
CONTINUOUS
 62
     7
 10
112.9500125
 20
244.9999875
 30
0.0
 11
113.0111125
 21
244.9999875
 31
0.0
  0
LINE
  5
329
  8
0
  6
CONTINUOUS
 62
     7
 10
112.9500125
 20
244.6331330450187
 30
0.0
 11
113.0111125
 21
244.6331330450187
 31
0.0
  0
LINE
  5
32A
  8
0
  6
CONTINUOUS
 62
     7
 10
113.0111125
 20
244.6331330450187
 30
0.0
 11
113.0111125
 21
244.9999875
 31
0.0
  0
LINE
  5
32B
  8
0
  6
CONTINUOUS
 62
     7
 10
136.2500125
 20
65.3668419549813
 30
0.0
 11
136.3111125
 21
65.3668419549813
 31
0.0
  0
LINE
  5
32C
  8
0
  6
CONTINUOUS
 62
     7
 10
136.3111125
 20
64.9999875
 30
0.0
 11
136.3111125
 21
65.3668419549813
 31
0.0
  0
LINE
  5
32D
  8
0
  6
CONTINUOUS
 62
     7
 10
19.8111125
 20
257.9999875
 30
0.0
 11
19.81111249999999
 21
260.9999875
 31
0.0
  0
LINE
  5
32E
  8
0
  6
CONTINUOUS
 62
     7
 10
43.0500125
 20
48.99998749999998
 30
0.0
 11
43.1111125
 21
48.99998749999998
 31
0.0
  0
LINE
  5
32F
  8
0
  6
CONTINUOUS
 62
     7
 10
43.1111125
 20
48.99998749999998
 30
0.0
 11
43.1111125
 21
51.99998750000001
 31
0.0
  0
LINE
  5
330
  8
0
  6
CONTINUOUS
 62
     7
 10
19.81111249999999
 20
244.9999875
 30
0.0
 11
19.8111125
 21
254.9999875
 31
0.0
  0
LINE
  5
331
  8
0
  6
CONTINUOUS
 62
     7
 10
43.0500125
 20
65.36684195498128
 30
0.0
 11
43.1111125
 21
65.36684195498128
 31
0.0
  0
LINE
  5
332
  8
0
  6
CONTINUOUS
 62
     7
 10
43.1111125
 20
64.99998749999999
 30
0.0
 11
43.1111125
 21
65.36684195498128
 31
0.0
  0
LINE
  5
333
  8
0
  6
CONTINUOUS
 62
     7
 10
43.0500125
 20
64.99998749999999
 30
0.0
 11
43.1111125
 21
64.99998749999999
 31
0.0
  0
LINE
  5
334
  8
0
  6
CONTINUOUS
 62
     7
 10
112.9500125
 20
64.99998749999999
 30
0.0
 11
113.0111125
 21
64.99998749999999
 31
0.0
  0
LINE
  5
335
  8
0
  6
CONTINUOUS
 62
     7
 10
113.0111125
 20
54.99998750000001
 30
0.0
 11
113.0111125
 21
64.99998749999999
 31
0.0
  0
LINE
  5
336
  8
0
  6
CONTINUOUS
 62
     7
 10
43.05001249999999
 20
261.3668419549813
 30
0.0
 11
43.11111249999999
 21
261.3668419549813
 31
0.0
  0
LINE
  5
337
  8
0
  6
CONTINUOUS
 62
     7
 10
43.11111249999999
 20
260.9999875
 30
0.0
 11
43.11111249999999
 21
261.3668419549813
 31
0.0
  0
LINE
  5
338
  8
0
  6
CONTINUOUS
 62
     7
 10
43.05001249999999
 20
244.6331330450187
 30
0.0
 11
43.11111249999999
 21
244.6331330450187
 31
0.0
  0
LINE
  5
339
  8
0
  6
CONTINUOUS
 62
     7
 10
43.11111249999999
 20
244.6331330450187
 30
0.0
 11
43.11111249999999
 21
244.9999875
 31
0.0
  0
LINE
  5
33A
  8
0
  6
CONTINUOUS
 62
     7
 10
159.5500125
 20
65.3668419549813
 30
0.0
 11
159.6111125
 21
65.3668419549813
 31
0.0
  0
LINE
  5
33B
  8
0
  6
CONTINUOUS
 62
     7
 10
159.6111125
 20
64.9999875
 30
0.0
 11
159.6111125
 21
65.3668419549813
 31
0.0
  0
LINE
  5
33C
  8
0
  6
CONTINUOUS
 62
     7
 10
89.6500125
 20
65.36684195498128
 30
0.0
 11
89.7111125
 21
65.36684195498128
 31
0.0
  0
LINE
  5
33D
  8
0
  6
CONTINUOUS
 62
     7
 10
89.7111125
 20
64.99998749999999
 30
0.0
 11
89.7111125
 21
65.36684195498128
 31
0.0
  0
LINE
  5
33E
  8
0
  6
CONTINUOUS
 62
     7
 10
89.6500125
 20
64.99998749999999
 30
0.0
 11
89.7111125
 21
64.99998749999999
 31
0.0
  0
LINE
  5
33F
  8
0
  6
CONTINUOUS
 62
     7
 10
66.41111249999999
 20
244.9999875
 30
0.0
 11
66.4111125
 21
254.9999875
 31
0.0
  0
LINE
  5
340
  8
0
  6
CONTINUOUS
 62
     7
 10
89.7111125
 20
244.9999875
 30
0.0
 11
89.71111250000001
 21
254.9999875
 31
0.0
  0
LINE
  5
341
  8
0
  6
CONTINUOUS
 62
     7
 10
19.7500125
 20
64.99998749999999
 30
0.0
 11
19.8111125
 21
64.99998749999999
 31
0.0
  0
LINE
  5
342
  8
0
  6
CONTINUOUS
 62
     7
 10
19.8111125
 20
54.99998750000001
 30
0.0
 11
19.8111125
 21
64.99998749999999
 31
0.0
  0
LINE
  5
343
  8
0
  6
CONTINUOUS
 62
     7
 10
136.2500125
 20
48.9999875
 30
0.0
 11
136.3111125
 21
48.9999875
 31
0.0
  0
LINE
  5
344
  8
0
  6
CONTINUOUS
 62
     7
 10
136.3111125
 20
48.9999875
 30
0.0
 11
136.3111125
 21
51.99998750000002
 31
0.0
  0
LINE
  5
345
  8
0
  6
CONTINUOUS
 62
     7
 10
19.7500125
 20
48.99998749999998
 30
0.0
 11
19.8111125
 21
48.99998749999998
 31
0.0
  0
LINE
  5
346
  8
0
  6
CONTINUOUS
 62
     7
 10
19.8111125
 20
48.99998749999998
 30
0.0
 11
19.8111125
 21
51.99998750000001
 31
0.0
  0
LINE
  5
347
  8
0
  6
CONTINUOUS
 62
     7
 10
113.0111125
 20
244.9999875
 30
0.0
 11
113.0111125
 21
254.9999875
 31
0.0
  0
LINE
  5
348
  8
0
  6
CONTINUOUS
 62
     7
 10
43.1111125
 20
54.99998750000001
 30
0.0
 11
43.1111125
 21
64.99998749999999
 31
0.0
  0
LINE
  5
349
  8
0
  6
CONTINUOUS
 62
     7
 10
112.9500125
 20
261.3668419549813
 30
0.0
 11
113.0111125
 21
261.3668419549813
 31
0.0
  0
LINE
  5
34A
  8
0
  6
CONTINUOUS
 62
     7
 10
113.0111125
 20
260.9999875
 30
0.0
 11
113.0111125
 21
261.3668419549813
 31
0.0
  0
LINE
  5
34B
  8
0
  6
CONTINUOUS
 62
     7
 10
19.7500125
 20
65.36684195498128
 30
0.0
 11
19.8111125
 21
65.36684195498128
 31
0.0
  0
LINE
  5
34C
  8
0
  6
CONTINUOUS
 62
     7
 10
19.8111125
 20
64.99998749999999
 30
0.0
 11
19.8111125
 21
65.36684195498128
 31
0.0
  0
LINE
  5
34D
  8
0
  6
CONTINUOUS
 62
     7
 10
112.9500125
 20
65.36684195498128
 30
0.0
 11
113.0111125
 21
65.36684195498128
 31
0.0
  0
LINE
  5
34E
  8
0
  6
CONTINUOUS
 62
     7
 10
113.0111125
 20
64.99998749999999
 30
0.0
 11
113.0111125
 21
65.36684195498128
 31
0.0
  0
LINE
  5
34F
  8
0
  6
CONTINUOUS
 62
     7
 10
66.35001249999999
 20
65.36684195498128
 30
0.0
 11
66.4111125
 21
65.36684195498128
 31
0.0
  0
LINE
  5
350
  8
0
  6
CONTINUOUS
 62
     7
 10
66.4111125
 20
64.99998749999999
 30
0.0
 11
66.4111125
 21
65.36684195498128
 31
0.0
  0
LINE
  5
351
  8
0
  6
CONTINUOUS
 62
     7
 10
159.5500125
 20
244.6331330450188
 30
0.0
 11
159.6111125
 21
244.6331330450188
 31
0.0
  0
LINE
  5
352
  8
0
  6
CONTINUOUS
 62
     7
 10
159.6111125
 20
244.6331330450187
 30
0.0
 11
159.6111125
 21
244.9999875
 31
0.0
  0
LINE
  5
353
  8
0
  6
CONTINUOUS
 62
     7
 10
89.7111125
 20
54.99998750000001
 30
0.0
 11
89.7111125
 21
64.99998749999999
 31
0.0
  0
LINE
  5
354
  8
0
  6
CONTINUOUS
 62
     7
 10
43.05001249999989
 20
48.63313304501875
 30
0.0
 11
43.1111125
 21
48.63313304501875
 31
0.0
  0
LINE
  5
355
  8
0
  6
CONTINUOUS
 62
     7
 10
43.1111125
 20
48.63313304501875
 30
0.0
 11
43.1111125
 21
48.99998749999998
 31
0.0
  0
LINE
  5
356
  8
0
  6
CONTINUOUS
 62
     7
 10
159.5500124999999
 20
48.63313304501876
 30
0.0
 11
159.6111125
 21
48.63313304501876
 31
0.0
  0
LINE
  5
357
  8
0
  6
CONTINUOUS
 62
     7
 10
159.6111125
 20
48.63313304501876
 30
0.0
 11
159.6111125
 21
48.9999875
 31
0.0
  0
LINE
  5
358
  8
0
  6
CONTINUOUS
 62
     7
 10
89.65001249999989
 20
48.63313304501875
 30
0.0
 11
89.7111125
 21
48.63313304501875
 31
0.0
  0
LINE
  5
359
  8
0
  6
CONTINUOUS
 62
     7
 10
89.7111125
 20
48.63313304501875
 30
0.0
 11
89.7111125
 21
48.99998749999998
 31
0.0
  0
LINE
  5
35A
  8
0
  6
CONTINUOUS
 62
     7
 10
112.9500124999999
 20
48.63313304501875
 30
0.0
 11
113.0111125
 21
48.63313304501875
 31
0.0
  0
LINE
  5
35B
  8
0
  6
CONTINUOUS
 62
     7
 10
113.0111125
 20
48.63313304501875
 30
0.0
 11
113.0111125
 21
48.99998749999998
 31
0.0
  0
LINE
  5
35C
  8
0
  6
CONTINUOUS
 62
     7
 10
136.2500124999999
 20
48.63313304501876
 30
0.0
 11
136.3111125
 21
48.63313304501876
 31
0.0
  0
LINE
  5
35D
  8
0
  6
CONTINUOUS
 62
     7
 10
136.3111125
 20
48.63313304501876
 30
0.0
 11
136.3111125
 21
48.9999875
 31
0.0
  0
LINE
  5
35E
  8
0
  6
CONTINUOUS
 62
     7
 10
19.75001249999989
 20
48.63313304501875
 30
0.0
 11
19.8111125
 21
48.63313304501875
 31
0.0
  0
LINE
  5
35F
  8
0
  6
CONTINUOUS
 62
     7
 10
19.8111125
 20
48.63313304501875
 30
0.0
 11
19.8111125
 21
48.99998749999998
 31
0.0
  0
LINE
  5
360
  8
0
  6
CONTINUOUS
 62
     7
 10
66.35001249999989
 20
48.63313304501875
 30
0.0
 11
66.4111125
 21
48.63313304501875
 31
0.0
  0
LINE
  5
361
  8
0
  6
CONTINUOUS
 62
     7
 10
66.4111125
 20
48.63313304501875
 30
0.0
 11
66.4111125
 21
48.99998749999998
 31
0.0
  0
LINE
  5
362
  8
0
  6
CONTINUOUS
 62
     7
 10
68.3500125
 20
268.0999875
 30
0.0
 11
66.35001249999999
 21
268.0999875
 31
0.0
  0
LINE
  5
363
  8
0
  6
CONTINUOUS
 62
     7
 10
66.35001249999999
 20
269.9999875
 30
0.0
 11
68.3500125
 21
269.9999875
 31
0.0
  0
LINE
  5
364
  8
0
  6
CONTINUOUS
 62
     7
 10
91.6500125
 20
268.0999875
 30
0.0
 11
89.6500125
 21
268.0999875
 31
0.0
  0
LINE
  5
365
  8
0
  6
CONTINUOUS
 62
     7
 10
89.65001249999999
 20
269.9999875
 30
0.0
 11
91.65001249999999
 21
269.9999875
 31
0.0
  0
LINE
  5
366
  8
0
  6
CONTINUOUS
 62
     7
 10
21.7500125
 20
268.0999875
 30
0.0
 11
19.7500125
 21
268.0999875
 31
0.0
  0
LINE
  5
367
  8
0
  6
CONTINUOUS
 62
     7
 10
19.7500125
 20
269.9999875
 30
0.0
 11
21.7500125
 21
269.9999875
 31
0.0
  0
LINE
  5
368
  8
0
  6
CONTINUOUS
 62
     7
 10
114.9500125
 20
268.0999875
 30
0.0
 11
112.9500125
 21
268.0999875
 31
0.0
  0
LINE
  5
369
  8
0
  6
CONTINUOUS
 62
     7
 10
112.9500125
 20
269.9999875
 30
0.0
 11
114.9500125
 21
269.9999875
 31
0.0
  0
LINE
  5
36A
  8
0
  6
CONTINUOUS
 62
     7
 10
138.2500125
 20
268.0999875000001
 30
0.0
 11
136.2500125
 21
268.0999875000001
 31
0.0
  0
LINE
  5
36B
  8
0
  6
CONTINUOUS
 62
     7
 10
136.2500125
 20
269.9999875
 30
0.0
 11
138.2500125
 21
269.9999875
 31
0.0
  0
LINE
  5
36C
  8
0
  6
CONTINUOUS
 62
     7
 10
45.05001249999999
 20
268.0999875
 30
0.0
 11
43.05001249999999
 21
268.0999875
 31
0.0
  0
LINE
  5
36D
  8
0
  6
CONTINUOUS
 62
     7
 10
43.05001249999999
 20
269.9999875
 30
0.0
 11
45.05001249999999
 21
269.9999875
 31
0.0
  0
LINE
  5
36E
  8
0
  6
CONTINUOUS
 62
     7
 10
161.5500125
 20
268.0999875000001
 30
0.0
 11
159.5500125
 21
268.0999875000001
 31
0.0
  0
LINE
  5
36F
  8
0
  6
CONTINUOUS
 62
     7
 10
159.5500125
 20
269.9999875
 30
0.0
 11
161.5500125
 21
269.9999875
 31
0.0
  0
LINE
  5
370
  8
0
  6
CONTINUOUS
 62
     7
 10
125.9500125
 20
191.9999875
 30
0.0
 11
125.9500125
 21
195.9999875
 31
0.0
  0
LINE
  5
371
  8
0
  6
CONTINUOUS
 62
     7
 10
126.9500125
 20
190.0999875
 30
0.0
 11
126.9500125
 21
197.8999875
 31
0.0
  0
LINE
  5
372
  8
0
  6
CONTINUOUS
 62
     7
 10
126.9500125
 20
190.0999875
 30
0.0
 11
125.9500125
 21
190.0999875
 31
0.0
  0
LINE
  5
373
  8
0
  6
CONTINUOUS
 62
     7
 10
125.9500125
 20
197.8999875
 30
0.0
 11
126.9500125
 21
197.8999875
 31
0.0
  0
LINE
  5
374
  8
0
  6
CONTINUOUS
 62
     7
 10
86.35001249999999
 20
190.0999875
 30
0.0
 11
86.35001249999999
 21
197.8999875
 31
0.0
  0
LINE
  5
375
  8
0
  6
CONTINUOUS
 62
     7
 10
87.35001249999999
 20
190.0999875
 30
0.0
 11
86.35001249999999
 21
190.0999875
 31
0.0
  0
LINE
  5
376
  8
0
  6
CONTINUOUS
 62
     7
 10
86.35001249999999
 20
197.8999875
 30
0.0
 11
87.35001249999999
 21
197.8999875
 31
0.0
  0
LINE
  5
377
  8
0
  6
CONTINUOUS
 62
     7
 10
132.9500125
 20
190.0999875
 30
0.0
 11
132.9500125
 21
197.8999875
 31
0.0
  0
LINE
  5
378
  8
0
  6
CONTINUOUS
 62
     7
 10
133.9500125
 20
190.0999875
 30
0.0
 11
132.9500125
 21
190.0999875
 31
0.0
  0
LINE
  5
379
  8
0
  6
CONTINUOUS
 62
     7
 10
132.9500125
 20
197.8999875
 30
0.0
 11
133.9500125
 21
197.8999875
 31
0.0
  0
LINE
  5
37A
  8
0
  6
CONTINUOUS
 62
     7
 10
32.7500125
 20
191.9999875
 30
0.0
 11
32.7500125
 21
195.9999875
 31
0.0
  0
LINE
  5
37B
  8
0
  6
CONTINUOUS
 62
     7
 10
33.75001249999998
 20
190.0999875
 30
0.0
 11
33.75001249999998
 21
197.8999875
 31
0.0
  0
LINE
  5
37C
  8
0
  6
CONTINUOUS
 62
     7
 10
33.75001249999998
 20
190.0999875
 30
0.0
 11
32.7500125
 21
190.0999875
 31
0.0
  0
LINE
  5
37D
  8
0
  6
CONTINUOUS
 62
     7
 10
32.7500125
 20
197.8999875
 30
0.0
 11
33.75001249999998
 21
197.8999875
 31
0.0
  0
LINE
  5
37E
  8
0
  6
CONTINUOUS
 62
     7
 10
79.35001249999999
 20
191.9999875
 30
0.0
 11
79.35001249999999
 21
195.9999875
 31
0.0
  0
LINE
  5
37F
  8
0
  6
CONTINUOUS
 62
     7
 10
80.35001249999998
 20
190.0999875
 30
0.0
 11
80.35001249999998
 21
197.8999875
 31
0.0
  0
LINE
  5
380
  8
0
  6
CONTINUOUS
 62
     7
 10
80.35001249999998
 20
190.0999875
 30
0.0
 11
79.35001249999999
 21
190.0999875
 31
0.0
  0
LINE
  5
381
  8
0
  6
CONTINUOUS
 62
     7
 10
79.35001249999999
 20
197.8999875
 30
0.0
 11
80.35001249999998
 21
197.8999875
 31
0.0
  0
LINE
  5
382
  8
0
  6
CONTINUOUS
 62
     7
 10
149.2500125
 20
191.9999875
 30
0.0
 11
149.2500125
 21
195.9999875
 31
0.0
  0
LINE
  5
383
  8
0
  6
CONTINUOUS
 62
     7
 10
150.2500125
 20
190.0999875
 30
0.0
 11
150.2500125
 21
197.8999875
 31
0.0
  0
LINE
  5
384
  8
0
  6
CONTINUOUS
 62
     7
 10
150.2500125
 20
190.0999875
 30
0.0
 11
149.2500125
 21
190.0999875
 31
0.0
  0
LINE
  5
385
  8
0
  6
CONTINUOUS
 62
     7
 10
149.2500125
 20
197.8999875
 30
0.0
 11
150.2500125
 21
197.8999875
 31
0.0
  0
LINE
  5
386
  8
0
  6
CONTINUOUS
 62
     7
 10
63.05001249999999
 20
190.0999875
 30
0.0
 11
63.05001249999999
 21
197.8999875
 31
0.0
  0
LINE
  5
387
  8
0
  6
CONTINUOUS
 62
     7
 10
63.05001249999999
 20
197.8999875
 30
0.0
 11
64.05001250000001
 21
197.8999875
 31
0.0
  0
LINE
  5
388
  8
0
  6
CONTINUOUS
 62
     7
 10
64.05001250000001
 20
190.0999875
 30
0.0
 11
63.0500125
 21
190.0999875
 31
0.0
  0
LINE
  5
389
  8
0
  6
CONTINUOUS
 62
     7
 10
39.75001249999999
 20
190.0999875
 30
0.0
 11
39.75001249999999
 21
197.8999875
 31
0.0
  0
LINE
  5
38A
  8
0
  6
CONTINUOUS
 62
     7
 10
40.75001249999999
 20
190.0999875
 30
0.0
 11
39.75001249999999
 21
190.0999875
 31
0.0
  0
LINE
  5
38B
  8
0
  6
CONTINUOUS
 62
     7
 10
39.75001249999999
 20
197.8999875
 30
0.0
 11
40.75001249999999
 21
197.8999875
 31
0.0
  0
LINE
  5
38C
  8
0
  6
CONTINUOUS
 62
     7
 10
102.6500125
 20
191.9999875
 30
0.0
 11
102.6500125
 21
195.9999875
 31
0.0
  0
LINE
  5
38D
  8
0
  6
CONTINUOUS
 62
     7
 10
103.6500125
 20
190.0999875
 30
0.0
 11
103.6500125
 21
197.8999875
 31
0.0
  0
LINE
  5
38E
  8
0
  6
CONTINUOUS
 62
     7
 10
103.6500125
 20
190.0999875
 30
0.0
 11
102.6500125
 21
190.0999875
 31
0.0
  0
LINE
  5
38F
  8
0
  6
CONTINUOUS
 62
     7
 10
102.6500125
 20
197.8999875
 30
0.0
 11
103.6500125
 21
197.8999875
 31
0.0
  0
LINE
  5
390
  8
0
  6
CONTINUOUS
 62
     7
 10
156.2500125
 20
190.0999875
 30
0.0
 11
156.2500125
 21
197.8999875
 31
0.0
  0
LINE
  5
391
  8
0
  6
CONTINUOUS
 62
     7
 10
157.2500125
 20
190.0999875
 30
0.0
 11
156.2500125
 21
190.0999875
 31
0.0
  0
LINE
  5
392
  8
0
  6
CONTINUOUS
 62
     7
 10
156.2500125
 20
197.8999875
 30
0.0
 11
157.2500125
 21
197.8999875
 31
0.0
  0
LINE
  5
393
  8
0
  6
CONTINUOUS
 62
     7
 10
109.6500125
 20
190.0999875
 30
0.0
 11
109.6500125
 21
197.8999875
 31
0.0
  0
LINE
  5
394
  8
0
  6
CONTINUOUS
 62
     7
 10
110.6500125
 20
190.0999875
 30
0.0
 11
109.6500125
 21
190.0999875
 31
0.0
  0
LINE
  5
395
  8
0
  6
CONTINUOUS
 62
     7
 10
109.6500125
 20
197.8999875
 30
0.0
 11
110.6500125
 21
197.8999875
 31
0.0
  0
LINE
  5
396
  8
0
  6
CONTINUOUS
 62
     7
 10
56.05001249999999
 20
191.9999875
 30
0.0
 11
56.05001249999999
 21
195.9999875
 31
0.0
  0
LINE
  5
397
  8
0
  6
CONTINUOUS
 62
     7
 10
57.05001249999998
 20
190.0999875
 30
0.0
 11
57.05001249999998
 21
197.8999875
 31
0.0
  0
LINE
  5
398
  8
0
  6
CONTINUOUS
 62
     7
 10
56.05001249999999
 20
197.8999875
 30
0.0
 11
57.05001249999998
 21
197.8999875
 31
0.0
  0
LINE
  5
399
  8
0
  6
CONTINUOUS
 62
     7
 10
57.05001249999998
 20
190.0999875
 30
0.0
 11
56.05001249999999
 21
190.0999875
 31
0.0
  0
LINE
  5
39A
  8
0
  6
CONTINUOUS
 62
     7
 10
86.35001249999999
 20
190.0999875
 30
0.0
 11
80.35001249999998
 21
190.0999875
 31
0.0
  0
LINE
  5
39B
  8
0
  6
CONTINUOUS
 62
     7
 10
86.35001249999999
 20
197.8999875
 30
0.0
 11
80.35001249999998
 21
197.8999875
 31
0.0
  0
LINE
  5
39C
  8
0
  6
CONTINUOUS
 62
     7
 10
63.05001249999999
 20
197.8999875
 30
0.0
 11
57.05001249999998
 21
197.8999875
 31
0.0
  0
LINE
  5
39D
  8
0
  6
CONTINUOUS
 62
     7
 10
63.05001249999999
 20
190.0999875
 30
0.0
 11
57.05001249999998
 21
190.0999875
 31
0.0
  0
LINE
  5
39E
  8
0
  6
CONTINUOUS
 62
     7
 10
39.75001249999999
 20
112.0999875
 30
0.0
 11
39.75001249999999
 21
119.8999875
 31
0.0
  0
LINE
  5
39F
  8
0
  6
CONTINUOUS
 62
     7
 10
33.75001249999998
 20
112.0999875
 30
0.0
 11
33.75001249999998
 21
119.8999875
 31
0.0
  0
LINE
  5
3A0
  8
0
  6
CONTINUOUS
 62
     7
 10
39.75001249999999
 20
112.0999875
 30
0.0
 11
33.75001249999998
 21
112.0999875
 31
0.0
  0
LINE
  5
3A1
  8
0
  6
CONTINUOUS
 62
     7
 10
39.75001249999999
 20
119.8999875
 30
0.0
 11
33.75001249999998
 21
119.8999875
 31
0.0
  0
LINE
  5
3A2
  8
0
  6
CONTINUOUS
 62
     7
 10
63.05001249999999
 20
112.0999875
 30
0.0
 11
63.05001249999999
 21
119.8999875
 31
0.0
  0
LINE
  5
3A3
  8
0
  6
CONTINUOUS
 62
     7
 10
57.05001249999998
 20
112.0999875
 30
0.0
 11
57.05001249999998
 21
119.8999875
 31
0.0
  0
LINE
  5
3A4
  8
0
  6
CONTINUOUS
 62
     7
 10
63.05001249999999
 20
112.0999875
 30
0.0
 11
57.05001249999998
 21
112.0999875
 31
0.0
  0
LINE
  5
3A5
  8
0
  6
CONTINUOUS
 62
     7
 10
63.05001249999999
 20
119.8999875
 30
0.0
 11
57.05001249999998
 21
119.8999875
 31
0.0
  0
LINE
  5
3A6
  8
0
  6
CONTINUOUS
 62
     7
 10
132.9500125
 20
112.0999875
 30
0.0
 11
132.9500125
 21
119.8999875
 31
0.0
  0
LINE
  5
3A7
  8
0
  6
CONTINUOUS
 62
     7
 10
126.9500125
 20
112.0999875
 30
0.0
 11
126.9500125
 21
119.8999875
 31
0.0
  0
LINE
  5
3A8
  8
0
  6
CONTINUOUS
 62
     7
 10
132.9500125
 20
112.0999875
 30
0.0
 11
126.9500125
 21
112.0999875
 31
0.0
  0
LINE
  5
3A9
  8
0
  6
CONTINUOUS
 62
     7
 10
132.9500125
 20
119.8999875
 30
0.0
 11
126.9500125
 21
119.8999875
 31
0.0
  0
LINE
  5
3AA
  8
0
  6
CONTINUOUS
 62
     7
 10
86.35001249999999
 20
112.0999875
 30
0.0
 11
86.35001249999999
 21
119.8999875
 31
0.0
  0
LINE
  5
3AB
  8
0
  6
CONTINUOUS
 62
     7
 10
80.35001249999998
 20
112.0999875
 30
0.0
 11
80.35001249999998
 21
119.8999875
 31
0.0
  0
LINE
  5
3AC
  8
0
  6
CONTINUOUS
 62
     7
 10
86.35001249999999
 20
112.0999875
 30
0.0
 11
80.35001249999998
 21
112.0999875
 31
0.0
  0
LINE
  5
3AD
  8
0
  6
CONTINUOUS
 62
     7
 10
86.35001249999999
 20
119.8999875
 30
0.0
 11
80.35001249999998
 21
119.8999875
 31
0.0
  0
LINE
  5
3AE
  8
0
  6
CONTINUOUS
 62
     7
 10
39.75001249999999
 20
190.0999875
 30
0.0
 11
33.75001249999998
 21
190.0999875
 31
0.0
  0
LINE
  5
3AF
  8
0
  6
CONTINUOUS
 62
     7
 10
39.75001249999999
 20
197.8999875
 30
0.0
 11
33.75001249999998
 21
197.8999875
 31
0.0
  0
LINE
  5
3B0
  8
0
  6
CONTINUOUS
 62
     7
 10
109.6500125
 20
190.0999875
 30
0.0
 11
103.6500125
 21
190.0999875
 31
0.0
  0
LINE
  5
3B1
  8
0
  6
CONTINUOUS
 62
     7
 10
109.6500125
 20
197.8999875
 30
0.0
 11
103.6500125
 21
197.8999875
 31
0.0
  0
LINE
  5
3B2
  8
0
  6
CONTINUOUS
 62
     7
 10
132.9500125
 20
190.0999875
 30
0.0
 11
126.9500125
 21
190.0999875
 31
0.0
  0
LINE
  5
3B3
  8
0
  6
CONTINUOUS
 62
     7
 10
132.9500125
 20
197.8999875
 30
0.0
 11
126.9500125
 21
197.8999875
 31
0.0
  0
LINE
  5
3B4
  8
0
  6
CONTINUOUS
 62
     7
 10
109.6500125
 20
112.0999875
 30
0.0
 11
109.6500125
 21
119.8999875
 31
0.0
  0
LINE
  5
3B5
  8
0
  6
CONTINUOUS
 62
     7
 10
103.6500125
 20
112.0999875
 30
0.0
 11
103.6500125
 21
119.8999875
 31
0.0
  0
LINE
  5
3B6
  8
0
  6
CONTINUOUS
 62
     7
 10
109.6500125
 20
112.0999875
 30
0.0
 11
103.6500125
 21
112.0999875
 31
0.0
  0
LINE
  5
3B7
  8
0
  6
CONTINUOUS
 62
     7
 10
109.6500125
 20
119.8999875
 30
0.0
 11
103.6500125
 21
119.8999875
 31
0.0
  0
LINE
  5
3B8
  8
0
  6
CONTINUOUS
 62
     7
 10
156.2500125
 20
190.0999875
 30
0.0
 11
150.2500125
 21
190.0999875
 31
0.0
  0
LINE
  5
3B9
  8
0
  6
CONTINUOUS
 62
     7
 10
156.2500125
 20
197.8999875
 30
0.0
 11
150.2500125
 21
197.8999875
 31
0.0
  0
LINE
  5
3BA
  8
0
  6
CONTINUOUS
 62
     7
 10
156.2500125
 20
112.0999875
 30
0.0
 11
156.2500125
 21
119.8999875
 31
0.0
  0
LINE
  5
3BB
  8
0
  6
CONTINUOUS
 62
     7
 10
150.2500125
 20
112.0999875
 30
0.0
 11
150.2500125
 21
119.8999875
 31
0.0
  0
LINE
  5
3BC
  8
0
  6
CONTINUOUS
 62
     7
 10
156.2500125
 20
112.0999875
 30
0.0
 11
150.2500125
 21
112.0999875
 31
0.0
  0
LINE
  5
3BD
  8
0
  6
CONTINUOUS
 62
     7
 10
156.2500125
 20
119.8999875
 30
0.0
 11
150.2500125
 21
119.8999875
 31
0.0
  0
LINE
  5
3BE
  8
0
  6
CONTINUOUS
 62
     7
 10
40.7500125
 20
112.0999875
 30
0.0
 11
39.75001249999999
 21
112.0999875
 31
0.0
  0
LINE
  5
3BF
  8
0
  6
CONTINUOUS
 62
     7
 10
40.7500125
 20
119.8999875
 30
0.0
 11
39.75001249999999
 21
119.8999875
 31
0.0
  0
LINE
  5
3C0
  8
0
  6
CONTINUOUS
 62
     7
 10
102.6500125
 20
113.9999875
 30
0.0
 11
102.6500125
 21
117.9999875
 31
0.0
  0
LINE
  5
3C1
  8
0
  6
CONTINUOUS
 62
     7
 10
103.6500125
 20
112.0999875
 30
0.0
 11
102.6500125
 21
112.0999875
 31
0.0
  0
LINE
  5
3C2
  8
0
  6
CONTINUOUS
 62
     7
 10
103.6500125
 20
119.8999875
 30
0.0
 11
102.6500125
 21
119.8999875
 31
0.0
  0
LINE
  5
3C3
  8
0
  6
CONTINUOUS
 62
     7
 10
110.6500125
 20
112.0999875
 30
0.0
 11
109.6500125
 21
112.0999875
 31
0.0
  0
LINE
  5
3C4
  8
0
  6
CONTINUOUS
 62
     7
 10
110.6500125
 20
119.8999875
 30
0.0
 11
109.6500125
 21
119.8999875
 31
0.0
  0
LINE
  5
3C5
  8
0
  6
CONTINUOUS
 62
     7
 10
133.9500125
 20
112.0999875
 30
0.0
 11
132.9500125
 21
112.0999875
 31
0.0
  0
LINE
  5
3C6
  8
0
  6
CONTINUOUS
 62
     7
 10
133.9500125
 20
119.8999875
 30
0.0
 11
132.9500125
 21
119.8999875
 31
0.0
  0
LINE
  5
3C7
  8
0
  6
CONTINUOUS
 62
     7
 10
64.05001250000001
 20
112.0999875
 30
0.0
 11
63.0500125
 21
112.0999875
 31
0.0
  0
LINE
  5
3C8
  8
0
  6
CONTINUOUS
 62
     7
 10
64.05001250000001
 20
119.8999875
 30
0.0
 11
63.0500125
 21
119.8999875
 31
0.0
  0
LINE
  5
3C9
  8
0
  6
CONTINUOUS
 62
     7
 10
125.9500125
 20
113.9999875
 30
0.0
 11
125.9500125
 21
117.9999875
 31
0.0
  0
LINE
  5
3CA
  8
0
  6
CONTINUOUS
 62
     7
 10
126.9500125
 20
112.0999875
 30
0.0
 11
125.9500125
 21
112.0999875
 31
0.0
  0
LINE
  5
3CB
  8
0
  6
CONTINUOUS
 62
     7
 10
126.9500125
 20
119.8999875
 30
0.0
 11
125.9500125
 21
119.8999875
 31
0.0
  0
LINE
  5
3CC
  8
0
  6
CONTINUOUS
 62
     7
 10
32.7500125
 20
113.9999875
 30
0.0
 11
32.7500125
 21
117.9999875
 31
0.0
  0
LINE
  5
3CD
  8
0
  6
CONTINUOUS
 62
     7
 10
33.75001249999998
 20
112.0999875
 30
0.0
 11
32.7500125
 21
112.0999875
 31
0.0
  0
LINE
  5
3CE
  8
0
  6
CONTINUOUS
 62
     7
 10
33.75001249999998
 20
119.8999875
 30
0.0
 11
32.7500125
 21
119.8999875
 31
0.0
  0
LINE
  5
3CF
  8
0
  6
CONTINUOUS
 62
     7
 10
87.3500125
 20
112.0999875
 30
0.0
 11
86.35001249999999
 21
112.0999875
 31
0.0
  0
LINE
  5
3D0
  8
0
  6
CONTINUOUS
 62
     7
 10
87.35001249999999
 20
119.8999875
 30
0.0
 11
86.35001249999999
 21
119.8999875
 31
0.0
  0
LINE
  5
3D1
  8
0
  6
CONTINUOUS
 62
     7
 10
149.2500125
 20
113.9999875
 30
0.0
 11
149.2500125
 21
117.9999875
 31
0.0
  0
LINE
  5
3D2
  8
0
  6
CONTINUOUS
 62
     7
 10
150.2500125
 20
112.0999875
 30
0.0
 11
149.2500125
 21
112.0999875
 31
0.0
  0
LINE
  5
3D3
  8
0
  6
CONTINUOUS
 62
     7
 10
150.2500125
 20
119.8999875
 30
0.0
 11
149.2500125
 21
119.8999875
 31
0.0
  0
LINE
  5
3D4
  8
0
  6
CONTINUOUS
 62
     7
 10
79.35001249999999
 20
113.9999875
 30
0.0
 11
79.35001249999999
 21
117.9999875
 31
0.0
  0
LINE
  5
3D5
  8
0
  6
CONTINUOUS
 62
     7
 10
80.35001249999998
 20
112.0999875
 30
0.0
 11
79.35001249999999
 21
112.0999875
 31
0.0
  0
LINE
  5
3D6
  8
0
  6
CONTINUOUS
 62
     7
 10
80.35001249999998
 20
119.8999875
 30
0.0
 11
79.35001249999999
 21
119.8999875
 31
0.0
  0
LINE
  5
3D7
  8
0
  6
CONTINUOUS
 62
     7
 10
157.2500125
 20
112.0999875
 30
0.0
 11
156.2500125
 21
112.0999875
 31
0.0
  0
LINE
  5
3D8
  8
0
  6
CONTINUOUS
 62
     7
 10
157.2500125
 20
119.8999875
 30
0.0
 11
156.2500125
 21
119.8999875
 31
0.0
  0
LINE
  5
3D9
  8
0
  6
CONTINUOUS
 62
     7
 10
56.05001249999999
 20
113.9999875
 30
0.0
 11
56.05001249999999
 21
117.9999875
 31
0.0
  0
LINE
  5
3DA
  8
0
  6
CONTINUOUS
 62
     7
 10
57.05001249999998
 20
112.0999875
 30
0.0
 11
56.05001249999999
 21
112.0999875
 31
0.0
  0
LINE
  5
3DB
  8
0
  6
CONTINUOUS
 62
     7
 10
57.05001249999998
 20
119.8999875
 30
0.0
 11
56.05001249999999
 21
119.8999875
 31
0.0
  0
ENDBLK
  8
0
  0
ENDSEC
  0
SECTION
  2
ENTITIES
  0
INSERT
  5
70
  8
0
 62
     7
  2
D_FRAME_DRAWING_17
 10
0.0
 20
0.0
 30
0.0
  0
INSERT
  5
DA
  8
0
  6
CONTINUOUS
 62
     7
  2
D_FRAME_VIEW_10059
 10
0.0
 20
0.0
 30
0.0
  0
INSERT
  5
143
  8
0
  6
CONTINUOUS
 62
     7
  2
D_FRAME_VIEW_10162
 10
0.0
 20
0.0
 30
0.0
  0
INSERT
  5
3DC
  8
0
  6
CONTINUOUS
 62
     7
  2
D_FRAME_VIEW_9290
 10
0.0
 20
0.0
 30
0.0
  0
ENDSEC
  0
EOF
