  0
SECTION
  2
HEADER
  9
$ACADVER
  1
AC1006
  9
$DWGCODEPAGE
  3
ansi_932
  9
$INSBASE
 10
0.0
 20
0.0
 30
0.0
  9
$EXTMIN
 10
0.0
 20
0.0
  9
$EXTMAX
 10
206.9242424242425
 20
290.0000000000001
  9
$LIMMIN
 10
0.0
 20
0.0
  9
$LIMMAX
 10
12.0
 20
9.0
  9
$ORTHOMODE
 70
     0
  9
$REGENMODE
 70
     1
  9
$FILLMODE
 70
     1
  9
$QTEXTMODE
 70
     0
  9
$MIRRTEXT
 70
     1
  9
$DRAGMODE
 70
     2
  9
$LTSCALE
 40
1.0
  9
$OSMODE
 70
    37
  9
$ATTMODE
 70
     1
  9
$TEXTSIZE
 40
0.2
  9
$TRACEWID
 40
0.05
  9
$TEXTSTYLE
  7
STANDARD
  9
$CLAYER
  8
0
  9
$CELTYPE
  6
BYLAYER
  9
$CECOLOR
 62
   256
  9
$DIMSCALE
 40
1.0
  9
$DIMASZ
 40
3.0
  9
$DIMEXO
 40
0.0625
  9
$DIMDLI
 40
0.38
  9
$DIMRND
 40
0.0
  9
$DIMDLE
 40
0.0
  9
$DIMEXE
 40
1.5
  9
$DIMTP
 40
0.0
  9
$DIMTM
 40
0.0
  9
$DIMTXT
 40
3.0
  9
$DIMCEN
 40
0.09
  9
$DIMTSZ
 40
0.0
  9
$DIMTOL
 70
     0
  9
$DIMLIM
 70
     0
  9
$DIMTIH
 70
     1
  9
$DIMTOH
 70
     1
  9
$DIMSE1
 70
     0
  9
$DIMSE2
 70
     0
  9
$DIMTAD
 70
     1
  9
$DIMZIN
 70
     0
  9
$DIMBLK
  1

  9
$DIMASO
 70
     1
  9
$DIMSHO
 70
     1
  9
$DIMPOST
  1

  9
$DIMAPOST
  1

  9
$DIMALT
 70
     0
  9
$DIMALTD
 70
     2
  9
$DIMALTF
 40
25.4
  9
$DIMLFAC
 40
1.0
  9
$DIMTOFL
 70
     0
  9
$DIMTVP
 40
0.0
  9
$DIMTIX
 70
     0
  9
$DIMSOXD
 70
     0
  9
$DIMSAH
 70
     0
  9
$DIMBLK1
  1

  9
$DIMBLK2
  1

  9
$LUNITS
 70
     2
  9
$LUPREC
 70
     4
  9
$SKETCHINC
 40
0.1
  9
$FILLETRAD
 40
0.5
  9
$AUNITS
 70
     0
  9
$AUPREC
 70
     0
  9
$MENU
  1
.
  9
$ELEVATION
 40
0.0
  9
$THICKNESS
 40
0.0
  9
$LIMCHECK
 70
     0
  9
$CHAMFERA
 40
0.0
  9
$CHAMFERB
 40
0.0
  9
$SKPOLY
 70
     0
  9
$TDCREATE
 40
2459856.695091562
  9
$TDUPDATE
 40
2459856.695091783
  9
$TDINDWG
 40
0.0000000116
  9
$TDUSRTIMER
 40
0.0000000116
  9
$USRTIMER
 70
     1
  9
$ANGBASE
 50
0.0
  9
$ANGDIR
 70
     0
  9
$PDMODE
 70
     0
  9
$PDSIZE
 40
0.0
  9
$PLINEWID
 40
0.0
  9
$COORDS
 70
     1
  9
$SPLFRAME
 70
     0
  9
$SPLINETYPE
 70
     6
  9
$SPLINESEGS
 70
     8
  9
$ATTDIA
 70
     0
  9
$ATTREQ
 70
     1
  9
$HANDLING
 70
     1
  9
$HANDSEED
  5
9D
  9
$SURFTAB1
 70
     6
  9
$SURFTAB2
 70
     6
  9
$SURFTYPE
 70
     6
  9
$SURFU
 70
     6
  9
$SURFV
 70
     6
  9
$UCSNAME
  2

  9
$UCSORG
 10
0.0
 20
0.0
 30
0.0
  9
$UCSXDIR
 10
1.0
 20
0.0
 30
0.0
  9
$UCSYDIR
 10
0.0
 20
1.0
 30
0.0
  9
$USERI1
 70
     0
  9
$USERI2
 70
     0
  9
$USERI3
 70
     0
  9
$USERI4
 70
     0
  9
$USERI5
 70
     0
  9
$USERR1
 40
0.0
  9
$USERR2
 40
0.0
  9
$USERR3
 40
0.0
  9
$USERR4
 40
0.0
  9
$USERR5
 40
0.0
  9
$WORLDVIEW
 70
     1
  0
ENDSEC
  0
SECTION
  2
TABLES
  0
TABLE
  2
VPORT
 70
     1
  0
VPORT
  2
*ACTIVE
 70
     0
 10
0.0
 20
0.0
 11
1.0
 21
1.0
 12
103.4621212121212
 22
145.0
 13
0.0
 23
0.0
 14
0.5
 24
0.5
 15
0.5
 25
0.5
 16
0.0
 26
0.0
 36
1.0
 17
0.0
 27
0.0
 37
0.0
 40
290.0000000000001
 41
1.6
 42
50.0
 43
0.0
 44
0.0
 50
0.0
 51
0.0
 71
     0
 72
   100
 73
     1
 74
     3
 75
     0
 76
     0
 77
     0
 78
     0
  0
ENDTAB
  0
TABLE
  2
LTYPE
 70
     2
  0
LTYPE
  2
CONTINUOUS
 70
     0
  3
Solid line
 72
    65
 73
     0
 40
0.0
  0
LTYPE
  2
DOT
 70
     0
  3

 72
    65
 73
     0
 40
0.0
  0
ENDTAB
  0
TABLE
  2
LAYER
 70
     2
  0
LAYER
  2
0
 70
     0
 62
     7
  6
CONTINUOUS
  0
LAYER
  2
1
 70
     0
 62
     7
  6
CONTINUOUS
  0
ENDTAB
  0
TABLE
  2
STYLE
 70
     2
  0
STYLE
  2
STANDARD
 70
     0
 40
0.0
 41
1.0
 50
0.0
 71
     0
 42
0.2
  3
txt
  4

  0
STYLE
  2
ＭＳ_ゴシック
 70
     0
 40
0.0
 41
1.0
 50
0.0
 71
     0
 42
0.2
  3
ＭＳ ゴシック.shx
  4

  0
ENDTAB
  0
TABLE
  2
VIEW
 70
     0
  0
ENDTAB
  0
TABLE
  2
UCS
 70
     0
  0
ENDTAB
  0
ENDSEC
  0
SECTION
  2
BLOCKS
  0
BLOCK
  8
0
  2
D_FRAME_DRAWING_17
 70
     0
 10
0.0
 20
0.0
 30
0.0
  0
LINE
  5
72
  8
0
  6
CONTINUOUS
 62
     7
 10
0.0
 20
0.0
 30
0.0
 11
210.0
 21
0.0
 31
0.0
  0
LINE
  5
73
  8
0
  6
CONTINUOUS
 62
     7
 10
210.0
 20
0.0
 30
0.0
 11
210.0
 21
297.0
 31
0.0
  0
LINE
  5
74
  8
0
  6
CONTINUOUS
 62
     7
 10
210.0
 20
297.0
 30
0.0
 11
0.0
 21
297.0
 31
0.0
  0
LINE
  5
75
  8
0
  6
CONTINUOUS
 62
     7
 10
0.0
 20
297.0
 30
0.0
 11
0.0
 21
0.0
 31
0.0
  0
ENDBLK
  8
0
  0
ENDSEC
  0
SECTION
  2
ENTITIES
  0
INSERT
  5
71
  8
0
 62
     7
  2
D_FRAME_DRAWING_17
 10
0.0
 20
0.0
 30
0.0
  0
LINE
  5
76
  8
1
  6
CONTINUOUS
 62
     7
 10
10.0
 20
0.0
 30
0.0
 11
199.9999999999999
 21
0.0
 31
0.0
  0
POLYLINE
  5
77
  8
1
  6
CONTINUOUS
 62
     7
 66
     1
 10
0.0
 20
0.0
 30
0.0
 70
     1
  0
VERTEX
  5
96
  8
1
  6
CONTINUOUS
 62
     7
 10
16.16666666666667
 20
10.00000000000001
 30
0.0
  0
VERTEX
  5
97
  8
1
  6
CONTINUOUS
 62
     7
 10
192.1666666666667
 20
10.00000000000001
 30
0.0
  0
VERTEX
  5
98
  8
1
  6
CONTINUOUS
 62
     7
 10
192.1666666666667
 20
290.0000000000001
 30
0.0
  0
VERTEX
  5
99
  8
1
  6
CONTINUOUS
 62
     7
 10
16.16666666666667
 20
290.0000000000001
 30
0.0
  0
SEQEND
  5
9C
  8
1
  6
CONTINUOUS
 62
     7
  0
LINE
  5
78
  8
1
  6
DOT
 62
     7
 10
71.16666666666669
 20
290.0000000000001
 30
0.0
 11
71.16666666666666
 21
10.00000000000001
 31
0.0
  0
LINE
  5
7A
  8
1
  6
DOT
 62
     7
 10
137.1666666666667
 20
290.0000000000001
 30
0.0
 11
137.1666666666667
 21
10.00000000000001
 31
0.0
  0
LINE
  5
7B
  8
1
  6
DOT
 62
     7
 10
170.1666666666667
 20
290.0000000000001
 30
0.0
 11
170.1666666666667
 21
10.0
 31
0.0
  0
LINE
  5
7C
  8
1
  6
DOT
 62
     7
 10
49.16666666666669
 20
290.0000000000001
 30
0.0
 11
49.16666666666666
 21
10.00000000000001
 31
0.0
  0
LINE
  5
7D
  8
1
  6
DOT
 62
     7
 10
93.16666666666669
 20
290.0000000000001
 30
0.0
 11
93.16666666666666
 21
10.00000000000001
 31
0.0
  0
LINE
  5
7E
  8
1
  6
DOT
 62
     7
 10
181.1666666666667
 20
290.0000000000001
 30
0.0
 11
181.1666666666666
 21
10.0
 31
0.0
  0
LINE
  5
7F
  8
1
  6
CONTINUOUS
 62
     7
 10
60.16666666666669
 20
290.0000000000001
 30
0.0
 11
60.16666666666666
 21
10.00000000000001
 31
0.0
  0
LINE
  5
80
  8
1
  6
DOT
 62
     7
 10
27.16666666666669
 20
290.0000000000001
 30
0.0
 11
27.16666666666666
 21
10.00000000000002
 31
0.0
  0
LINE
  5
81
  8
1
  6
DOT
 62
     7
 10
115.1666666666667
 20
290.0000000000001
 30
0.0
 11
115.1666666666667
 21
10.00000000000001
 31
0.0
  0
LINE
  5
82
  8
1
  6
CONTINUOUS
 62
     7
 10
148.1666666666667
 20
290.0000000000001
 30
0.0
 11
148.1666666666667
 21
10.0
 31
0.0
  0
LINE
  5
83
  8
1
  6
CONTINUOUS
 62
     7
 10
192.1666666666667
 20
220.0
 30
0.0
 11
16.16666666666667
 21
220.0
 31
0.0
  0
LINE
  5
84
  8
1
  6
DOT
 62
     7
 10
38.16666666666668
 20
290.0000000000001
 30
0.0
 11
38.16666666666665
 21
10.00000000000002
 31
0.0
  0
LINE
  5
85
  8
1
  6
DOT
 62
     7
 10
82.16666666666669
 20
290.0000000000001
 30
0.0
 11
82.16666666666666
 21
10.00000000000001
 31
0.0
  0
LINE
  5
86
  8
1
  6
CONTINUOUS
 62
     7
 10
192.1666666666667
 20
80.00000000000001
 30
0.0
 11
16.16666666666667
 21
80.00000000000001
 31
0.0
  0
LINE
  5
87
  8
1
  6
DOT
 62
     7
 10
126.1666666666667
 20
290.0000000000001
 30
0.0
 11
126.1666666666666
 21
10.00000000000001
 31
0.0
  0
LINE
  5
88
  8
1
  6
DOT
 62
     7
 10
159.1666666666667
 20
290.0000000000001
 30
0.0
 11
159.1666666666667
 21
10.0
 31
0.0
  0
LINE
  5
89
  8
1
  6
CONTINUOUS
 62
     7
 10
16.16666666666667
 20
150.0
 30
0.0
 11
192.1666666666667
 21
150.0
 31
0.0
  0
LINE
  5
8A
  8
1
  6
CONTINUOUS
 62
     7
 10
104.1666666666667
 20
10.00000000000001
 30
0.0
 11
104.1666666666667
 21
290.0000000000001
 31
0.0
  0
TEXT
  5
8B
  8
1
  6
CONTINUOUS
 62
     7
 10
50.54901421366345
 20
1.014303280396818
 30
0.0
 40
5.999999999999996
  1
KFC-4570H、KFCZ-4570(H)
  0
TEXT
  5
8C
  8
1
  6
CONTINUOUS
 62
     7
 10
146.0115063982327
 20
1.811791921970739
 30
0.0
 40
6.0
  1
A4普通用紙(16枚分)
  0
POINT
  5
8D
  8
1
 62
     7
 10
0.0
 20
0.0
 30
0.0
  0
POINT
  5
8E
  8
1
 62
     7
 10
104.1666666666667
 20
150.0
 30
0.0
  0
ENDSEC
  0
EOF
